Oops, an error
Loading. Please wait.

Red Right Hand tab

version 2
version 2

Whole song

Interactive

19,032 views 99 this week
no commentswrite comment
1 2 3 4 5
x 10
add to favorites
×
Save as Personal and add changes to this tab that will be seen only by you. Learn more ›
×
You can save this tab as Personal to edit and correct it or add notes. All changes will be seen only by you. Learn more »
launch autoscroll
font size
0
reset
how to read this tab
guitar tuner
edit
Autoscroll
slow
fast
+/-
esc
set tempo
stop
Author
-------------------------------------------------------------------------------
                             RED RIGHT HAND - Arctic Monkeys (Nick Cave cover)
-------------------------------------------------------------------------------
Tabbed by: Anzelmo
Email: kwipek@gmail.com

Tuning: standard

First guitar + bass

Main riff:(0:01-0:35) (0:41-1:16) (1:23-1:57) (2:08-2:36) (2:43-2:50 [first part only])(3:04-3:40)
e|---------------------------------------------------------------------------|
B|---------------------------------------------------------------------------|few times
G|---------------------------------------------------------------------------|
D|---------------------------------------------------------------------------| <---_
A|-2--2-2---5--5-5-5----2--2-2---5--5-5-5----2--2-2---5--5-5-5---------------|      \
E|---------------------------------------------------------------------------|        \
then                                                                                    \
e|---------------------------------------------------------------------------|           |
B|---------------------------------------------------------------------------|           |
G|----------5-4-0-------------5-4-0------------5-4-0-------------------------|and back to/
D|-2--2-2------------2--2-2-----------2--2-2-------------2--4--5--7----------|
A|---------------------------------------------------------------------------|
E|---------------------------------------------------------------------------|

Chorus: (0:35-0:41) (1:16-1:23) (1:57-2:02 [only first part]) (2:36-2:43) (3:47-3:53)
e|---------------------------------------------------------------------------|
B|---------------------------------------------------------------------------|
G|---------------------------------------------------------------------------|
D|-4-4-4-4-4-4--4-4--4-4---2-----2-----2-----2-----2-----2-----2-----2-------|
A|---------------------------------------------------------------------------|
E|--------------------------(0-0---0-0---0-0---0-0---0-0---0-0---0-0---0-0)--|(bass)

Bridge: (2:50-3:03) (3:53-4:07)
e|--2~---2~-----3~~---|
B|--3~---3~-----3~~---|
G|--4~---4~-----3~~---| x4
D|--4~---4~-----5~~---|
A|--2~---2~-----5~~---|
E|--2~---2~-----3~~---|
   
then Main riff, only bass (3:04-3:40)

then Interlude: (3:40-3:46)
e|---------------------------------------------------------------------------|
B|---------------------------------------------------------------------------|
G|------4---------4---------4----------~~4~~---------------------------------|
D|------4---------4---------4----------~~4~~---------------------------------|
A|------2---------2---------2----------~~2-~~--------------------------------|
E|---------------------------------------------------------------------------|


Order:
Main riff
Chorus
Main riff
Chorus
Main riff
Chorus [first part only]
PASUE
Main riff
Chorus
Main riff [first part only]
Bridge
Main riff [bass only]
Interlude
Chorus [maybe powerchords, F# E)
Bridge

            
            
Suggest correction
Creating personal tab
Creating personal tab
You can edit any tab online and save it as your Personal.

You can edit, replace or remove any tab part or add personal notes – all changes will be seen only by you.

Personal tabs can be accessed anytime from any device, even offline.
Learn more »
comments
print report bad tab
guest
You may want to rate the tab now too:
select rating
Wanna post a correction for this tab? Suggest correction