Oops, an error
Loading. Please wait.
We have an official Still Take You Home tab made by UG professional guitarists. Check out the tab »
×
8,074 views 1 this week
1 commentread comment
1 2 3 4 5
1 last vote to show rating
add to favorites
×
Save as Personal and add changes to this tab that will be seen only by you. Learn more ›
×
You can save this tab as Personal to edit and correct it or add notes. All changes will be seen only by you. Learn more »
launch autoscroll
font size
0
reset
how to read this tab
guitar tuner
backing track
0:00
0:00
edit
Autoscroll
slow
fast
+/-
esc
set tempo
stop
This is the proper version of the song heard on the album, other tabs are good but this 
100%

Intro:

e --------     -----------     -----|
B --------     -----------     -----|
G --------     -----------     -----|
D -------- x1  ----------- x15 -----| x1
A ----7-6-     -------7-6-     -666-|
E -8-8----     -7-8-8-----     -----|

Solo #1:

e --------------------------------------------------------|
B --------------------------------------------------------|
G --------------------------------------------------------|
D -10-10-1010-8-------------------------------------8-----|
A -------------10-10-8-10-10-8-10-10-8-10-10-8-10-10-10-8-|
E --------------------------------------------------------|

e ---------------------------------------|
B ---------------------------------------|
G ---------------------------------------|
D ---------------------6-8-6-8-888-888-6-|
A -66-8-10-66-8-10-66-8------------------|
E ---------------------------------------|

Verse #1:

e -------------------------------------|
B -----------------------9--9--x-12-11-|
G -9--9---9--9--x-9---9--10-10-x-13-12-|
D -10-10--10-10-x-10--10-10-10-x-13-12-| x2
A -10-10--10-10-x-10--10-8--8--x-11-10-|
E -8--8---8--8--x-8---8----------------|

Chorus:
e ---------------------------------------------------|
B ---------------------------------------------------|
G -10-10-10--8-8-8-----------------------------------|
D -10-10-10--8-8-8--10101010101010101010101010101010-| (Clean tone)
A -8--8--8---6-6-6--10101010101010101010101010101010-|
E ------------------6-6-6-6-6-6-6-6-6-6-6-6-6-6-6-6--|

e -------------------------------------------------------|
B -------------------------------------------------------|
G -------------------------------------------------------|
D -13-11-13--11-9-11--1010101010101010101010101010101010-| x2 (Warm distortion tone)
A --------------------1010101010101010101010101010101010-|
E --------------------8-8-8-8-8-8-8-8-8-8-8-8-8-8-8-8-8--|

Verse #2 - much the same as verse 1 but more muted strumming and slightly different chords

e ----------------------------------|
B ----------------------------------|
G -------------------10-10-x-13x-12-|
D -10-x-10-xxx-10-xx-10-10-x-13x-12-| x2
A -10-x-10-xxx-10-xx-8--8--x-11x-10-|
E -8--x-8--xxx-8--xx----------------|

Solo #2

e -------------------------------------|
B -------------------------------------|
G -------------------------------------|
D -----10-10-8-------------------------| x2
A ------------10-9-8-8-11-11-11-x-1010-|
E -8-8---------------------------------|

e -----------------------------------------------------------------------|
B -----------------------------------------------------------------------|
G ----------8--------8-10-10-10-8---8-10-10-10-10-8--8-10-10-10-10-8--8B-|
D ---10-8-10-10--8-10-------------10---------------10---------------10---|
A -----------------------------------------------------------------------|
E -8---------------------------------------------------------------------|

e --------------------------------------------------|
B --------------------------------------------------|
G --------------------8-10-10b-8v-10-10-10-10-8-----|
D -8-9-10------8--8-10-------------------------10-8-|
A -------8-9-10-10----------------------------------|
E --------------------------------------------------|

Bridge: (woah woah woah) ... (dadadadadadadada)

e ------------------------|
B ------------------------|
G -10------8--------------|
D -10------8------10------| x2
A -8-------6------10------|
E ----------------8-------|

e --------     -----------     -----|
B --------     -----------     -----|
G --------     -----------     -----|
D -------- x1  ----------- x7  -----| x1
A ----7-6-     -------7-6-     -666-|
E -8-8----     -7-8-8-----     -----|

Chorus: (i said what do you know? said you dont)

e -------------------------------------------------------------------------------------------|
B -------------------------------------------------------------------------------------------|
G -------------------------------------------------------------------------------------------|x 2
D -10-10-10-10-10-10-10-10--8-8-8-8-8-8-8-8--10-10-10-10-10-10-10-10-10-10-10-10-10-10-10-10-|
A -8--8--8--8--8--8--8--8---6-6-6-6-6-6-6-6--10-10-10-10-10-10-10-10-10-10-10-10-10-10-10-10-|
E -------------------------------------------8--8--8--8--8--8--8--8--8--8--8--8--8--8--8--8--|

Outro:

e ---------------------------------------------------------------------|
B ---------------------------------------------------------------------|
G ----------------------------------1010101010101010-13131313-12121212-|
D -10101010101010101010101010101010-1010101010101010-13131313-12121212-| x2
A -10101010101010101010101010101010-8-8-8-8-8-8-8-8--11111111-10101010-|
E -8-8-8-8-8-8-8-8-8-8-8-8-8-8-8-8-------------------------------------|

e ------|
B ------|
G ------|
D -xx10- finish on that and ur done :)
A -xx10-
E -xx8--

            
            
Suggest correction
Creating personal tab
Creating personal tab
You can edit any tab online and save it as your Personal.

You can edit, replace or remove any tab part or add personal notes – all changes will be seen only by you.

Personal tabs can be accessed anytime from any device, even offline.
Learn more »
Give kudos to tab author, rate the tab!
1 2 3 4 5
comments
print report bad tab
1 comment total.
0 reply
HardcoreKipper 181 Mar 03, 2015 11:46 AM

Lack of accuracy. This tab is a step too high. If you play it alongside the record it sounds slightly out, but apart from that, nicely formatted.

guest
Wanna post a correction for this tab? Suggest correction