Oops, an error
Loading. Please wait.
We have an official Suck It And See tab made by UG professional guitarists. Check out the tab »
×

Suck It And See tab

version 1
version 1

Whole song

  • This is the complete song, got the tab for every part of the song.

Interactive

943 views 12 this week
2 commentsread comments
1 2 3 4 5
x 3
add to favorites
×
Save as Personal and add changes to this tab that will be seen only by you. Learn more ›
×
You can save this tab as Personal to edit and correct it or add notes. All changes will be seen only by you. Learn more »
launch autoscroll
font size
0
reset
how to read this tab
guitar tuner
backing track
0:00
0:00
edit
Autoscroll
slow
fast
+/-
esc
set tempo
stop
Author
Difficulty
About this tab version
This is the complete song, got the tab for every part of the song. Was this info helpful? Yes No
Hi guys i tabbed here the part for both guitars, notice please that its not all sync just some parts 
i tried to do the best i can, so if you got any suggest please leave your comment, thanks!


[Verse]

Only Alex

E                                    C#m
Your love is like a studded leather headlock
    F#m                                  B
Your kiss it could put creases in the rain
E                                        C#m
You're rarer than a can of dandelion and burdock
         F#m                   B               
And those other girls are just post mix lemonade


[Interlude]

Alex (strum many times in this chord listen to live versions or album)

e|-0-------------------------------|
B|-0-------------------------------|
G|-1-------------------------------|
D|-2-------------------------------|
A|-2-------------------------------|
E|-0-------------------------------|

Jamie (Actually in this part he plays the same that alex plays in the chorus but then change to his part)

e|-------0-------0---------------0-|
B|---7-------7-------7---9---7-----|
G|-9---9---9---9---9---9---9---9---|
D|---------------------------------|
A|---------------------------------|
E|---------------------------------|


[Chorus]

Suck it and see, you never know
Sit next to me before I go

Alex

e|---2---0---2---0---2---4---2---0-|
B|-5---5---5---5---5---5---5---5---|
G|---------------------------------| Repeat it during those lyrics above
D|---------------------------------|
A|---------------------------------|
E|---------------------------------|

Jamie

e|---------------5-7-------|
B|-9-10---9-10---5-----7-9-|
G|-9------9------6-----8---| x2
D|-9------9------7-----9---|
A|-------------------------|
E|-------------------------|

Jigsaw women with hollow movie blue shoes

Alex

e|---4---2---0---2---0---4---2---0-4-|
B|-5---5---5---5---4---0---0---0---5-|
G|-----------------------------------|
D|-----------------------------------|
A|-----------------------------------|
E|-----------------------------------|

Jamie 

e|-0-0-0-0-0--0-0--0-9-|
B|-2-2-4-4-4--2-2------|
G|--------------1------|
D|---------------------|
A|---------------------|
E|---------------------|

Be cruel to me 'cause I'm a fool for you

Alex

e|---2---0---2---0---2---4---2---0-|
B|-5---5---5---5---5---5---5---5---|
G|---------------------------------|
D|---------------------------------|
A|---------------------------------|
E|---------------------------------|

Jamie

e|-5---7----7--|
B|-5---7----9--|
G|-6---8----9--|
D|-7---9----9--|
A|----------7--|
E|-------------|

[Interlude]

Only Alex Plays

e|--0---0---0---0---0---0---0---0--0-|
B|5---5---5---5---4---4---2---0----0-|
G|---------------------------------1-|
D|---------------------------------2-|
A|---------------------------------2-|
E|---------------------------------0-|

[Verse]

Only Jamie plays

I poured my aching heart into a pop song

e|-------------------------------------------------------------------|
B|-------------------------------------------------------------------|
G|-------------------------------------------------------------------|
D|-------------------------------------------------------------------|
A|-16-16-16--14-14-14-14-14-11-11-11--9-9-9-9-9--7-7-7-7-7-7-7-7-7-7-|
E|-0--0--0---0--0--0--0--0--0--0--0---0-0-0-0-0--9-9-9-9-9-9-9-9-9-9-|

I couldn't get the hang of poetry

e|-----------------------------------------------------------|
B|-----------------------------------------------------------|
G|-----------------------------------------------------------|
D|-----------------------------------------------------------|
A|-0-0-0-0-0-0-0-0-0-0-0-0-2-2-2-4-4-4-4-4-6-6-6-14-14-14-14-|
E|-----------------------------------------------------------|

That's not a skirt, girl, that's a sawn-off shotgun

e|-------------------------------------------------------------------|
B|-------------------------------------------------------------------|
G|-------------------------------------------------------------------|
D|-------------------------------------------------------------------|
A|-16-16-16--14-14-14-14-14-11-11-11--9-9-9-9-9--7-7-7-7-7-7-7-7-7-7-|
E|-0--0--0---0--0--0--0--0--0--0--0---0-0-0-0-0--9-9-9-9-9-9-9-9-9-9-|

And I can only hope you've got it aimed at me

e|--------------------------------------------------|
B|--------------------------------------------------|
G|--------------------------------------------------|
D|--------------------------------------------------|
A|--------------------------------------------------|
E|-5-5-5-5-5-5-5-5-5-5-5-5--7-7-7-7-7-7-7-7-7-7-7-7-|

Repeat here Interlude and Chorus

[Interlude]

Alex i will put the chords you just get the strum pattern by yourself

e|-4-------2-------4-------2-|
B|-5-------4-------5-------4-|
G|-6-------4-------6-------4-|
D|-6-------4-------6-------4-|
A|-4-------2-------4-------2-|
E|---------------------------|

Jamie strum one time and let it ring

e|-4-------------------------|
B|-5-------------------------|
G|-6-------------------------|
D|-6-------------------------|
A|-4-------------------------|
E|---------------------------|

[Bridge]

Blue moon girls from once upon a

Alex

e|-5-------------------------------2-----------------------------------------|
B|-5-------------------------------2-----------------------------------------|
G|-6-------------------------------2-----------------------------------------|
D|-7-------------------------------4-----------------------------------------|
A|-7-------------------------------4-----------------------------------------|
E|-5-------------------------------2-----------------------------------------|

Jamie

e|---------------------------------------------------------------------------|
B|---------------------------------------------------------------------------|
G|---------------------------------------------------------------------------|
D|-7-7-7-6-6-4-4-2-2-2-2-2-2-2-2---7-7-7-6-6-4-4-2-2-2-2-2-2-2-2-------------|
A|---------------------------------------------------------------------------|
E|---------------------------------------------------------------------------|

Shangri-La how I often wonder where you are

Alex 

e|-4---------------4---------------4---------------2-------------------------|
B|-5---------------4---------------5---------------4-------------------------|
G|-6---------------5---------------6---------------4-------------------------|
D|-6---------------6---------------6---------------4-------------------------|
A|-4---------------6---------------4---------------2-------------------------|
E|-----------------4---------------------------------------------------------|

Jamie

e|---------------------------------------------------------------------------|
B|---------------------------------------------------------------------------|
G|---------------------------------------------------------------------------|
D|-2-2-2-2-2-2-2-2-1-1-1-1-1-1-1-1-6-6-6-6-6-6-6-6-4-4-4-4-4-4-4-------------|
A|---------------------------------------------------------------------------|
E|---------------------------------------------------------------------------|

You have got that face that just says "Baby, I was made to break your heart"

Alex

e|-5-----------2-----------5-------------7-----5-----------------------------|
B|-5-----------2-----------5-------------7-----5-----------------------------|
G|-6-----------2-----------6-------------8-----6-----------------------------|
D|-7-----------4-----------7-------------9-----7-----------------------------|
A|-7-----------4-----------7-------------9-----7-----------------------------|
E|-5-----------2-----------5-------------7-----5-----------------------------|

Jamie

e|---------------------------------------------------------------------------|
B|---------------------------------------------------------------------------|
G|---------------------------------------------------------------------------|
D|-7-6-4-6-2---7-9-6-4-2---7-6-4-6-2--2/-4--4/-9-----------------------------|
A|---------------------------------------------------------------------------|
E|---------------------------------------------------------------------------|


[Solo]

Alex (im not so sure if the chords are sync with the solo but this are the chords he plays during solo)

e|-0---0---------0-------0------0----0---------0----0------------------------|
B|-0---2---------0-------2------0----2---------0----2------------------------|
G|-1---2---------1-------2------1----2---------1----2------------------------|
D|-2---2---------2-------2------2----2---------2----2------------------------|
A|-2---0---------2-------0------2----0---------2----0------------------------|
E|-0-------------0--------------0--------------0-----------------------------|

Jamie

e|---------------------------------------------------------------------------|
B|---------------------------------------------------------------------------|
G|-9-------------------------------------------------------------------------|
D|---9-7-7-7-9-7-7-6-6-7-7-7-9-7-6-6-7-7-7-9-7-7-6-6-4-4-4-6-4---------------|
A|---------------------------------------------------------------------------|
E|---------------------------------------------------------------------------|

[Chorus]

Suck it and see, you never know
Sit next to me before I go
Go, go, go

Alex

e|---2---0---2---0---2---4---2---0-|
B|-5---5---5---5---5---5---5---5---|
G|---------------------------------| Repeat it during those lyrics above
D|---------------------------------|
A|---------------------------------|
E|---------------------------------|

Jamie

e|---------------------------------|
B|---------------------------------|
G|---------------------------------| Repeat it during those lyrics above
D|---------------------------------|
A|-7-7-7-7-7-7-7-7-----------------|
E|-----------------5-5-5-5-5--7-5--|

Jigsaw women with horror movie shoes

Alex

e|----7---0---7---0---2---0---2---0-|
B|-/9---9---9---9---5---5---5---5---|
G|----------------------------------|  x2
D|----------------------------------|
A|----------------------------------|
E|----------------------------------|

Jamie

e|---------------------------------|
B|---------------------------------|
G|---------------------------------| x2
D|---------------------------------|
A|-7-7-7-7-7-7-7-7-----------------|
E|-----------------5-5-5-5-5--7-5--|

Be cruel to me 'cause I'm a fool for you

Alex

e|-2----0----2-----0-|
B|-2----2----4-----0-|
G|-2----2----4-----1-|
D|-4----2----4-----2-|
A|-4----0----2-----2-|
E|-2---------------0-|

Jamie (in live versions he doesnt play anything here its just Alex)

e|-------------------|
B|-------------------|
G|-------------------|
D|-------------------|
A|-------------------|
E|-2----5----7-----0-|


************************************

| x   Dead note
| g   Grace note
| (n) Ghost note
| h   Hammer-on
| p   Pull-off
| r   Release
| >   Accented note
| t   Tapping
| b   Bend
| br  Bend release
| pb  Pre-bend
| pbr Pre-bend release
| /   Slide up
| \   Slide down
| ~   Vibrato
| s   Slap
| P   Pop
| PM  Palm mute
| TR  Trill
| N   Tremolo

************************************

            
            
Suggest correction
Creating personal tab
Creating personal tab
You can edit any tab online and save it as your Personal.

You can edit, replace or remove any tab part or add personal notes – all changes will be seen only by you.

Personal tabs can be accessed anytime from any device, even offline.
Learn more »
Give kudos to tab author, rate the tab!
1 2 3 4 5
comments
print report bad tab
2 comments total.
+1 reply
Kirkiscool 2,747 Dec 19, 2016 04:38 PM

Great tab, the notes are correct but I guess that all the lead parts in this songs are actually played by Jamie and all the rhythm parts by Alex, just watch here https://www.youtube.com/watch?v=NkMkkRfRAJU

otherwise 5*

0 reply
marqiss 318 Dec 19, 2016 06:16 PM

Hi! thanks for your suggestion but, in this video there are 3 guitars, Jamie playing what i tab, Alex playing chords like in acoustic, and some other guitar playing the Alex part, i think its because Alex was trying to focus more on vocals than in guitar. its very sad for Jamie he always plays the second guitar, check on this video from 2012
https://www.youtube.com/watch?v=v1Bzxhedu9A minute 00:29 (i was there in that concert, was pretty crazy)
during 2013 and forward, they get another guitar player and alex just play chords
anyways, thank you for the 5 stars!

guest
You may want to rate the tab now too:
select rating
Wanna post a correction for this tab? Suggest correction