Oops, an error
Loading. Please wait.
We have an official Teddy Picker tab made by UG professional guitarists. Check out the tab »
×
52,775 views 15 this week
8 commentsread comments
1 2 3 4 5
x 26
add to favorites
×
Save as Personal and add changes to this tab that will be seen only by you. Learn more ›
×
You can save this tab as Personal to edit and correct it or add notes. All changes will be seen only by you. Learn more »
launch autoscroll
font size
0
reset
guitar tuner
backing track
0:00
0:00
edit
Autoscroll
slow
fast
+/-
esc
set tempo
stop
Difficulty
intermediate
|-----------------------------------------------------------------------------------------------|
|-----------------------------------------------------------------------------------------------|
|--------6-5---------6-5--------6-5-------6-5---------------------------3--------6-5-------6-5--|
|-4-5-5-------4-5-5-----4-5-5-----4-5-5-----5-0-0-4-0—0-0-0-4-0—4-5-5----4-5-5------------------|


|--------------------|
|--------------------|
|--------6-5     x16-|
|-4-5-5--------------|

|------------------------------------------------|
|------------------------------------------------|
|---------------------------------6-5-------6-5--|
|11111111-00000000-4-5-5-----4-5-5---------------|

|---------------------------------------------------|
|---------------------------------------------------|
|--------------------------6666666666666666---------|
|11111111-00000000----------------------------------|

|--------------------|
|--------------------|
|---------6-5    x12-|
|-5—55---------------|

|-------------------------------------------------------------------------------|
|-------------------------------------------------------------------------------|
|--------6-5---------6-5--------6-5-------6-5--------6-5--------6-5-------6-5---|
|-4-5-5-------4-5-5-----4-5-5-----4-5-5-----4-5-5-----4-5-5-----4-5-5------4-5--|

|------------------------------------------------------------------------|
|------------------------------------------------------------------------|
|--------------------------------------------------------6-5-------6-5---|
|-(miss first note out)1111111-00000000-4-5-5-----4-5-5------------------|

|------------------------|
|--------------2-0-------|
|------------------3-2---|
| 11111111----------0----|

|--------------------|
|--------------------|
|---------6-5    x12-|
|-5—55---------------|

|------------------------------|
|-------------- ---------------|
|---------------------------3--|
|-0—00-4-0---0—00-4------------|
|------------------------------|
|------------------------------|
|---------6-5------------------|    x2
|-5—55-------------------------|

|---------------------------------------------------|
|---------------------------------------------------|
|---------------------------------6-5-------6-5-----|    x2
|11111111-00000000-4-5-5-----4-5-5------------------|

|------------------------------------------------|
|------------------------------------------------|
|------------------------------------------------|
|-1----------0----------5---------55555555-------|

|-----------------------------------------------|
|-----------------------------------------------|
|----------------------------------66666666-----|
|-1----------0----------5-----------------------|


|----------------------------------------------------------------------------|
|----------------------------------------------------------------------------|
|--------6-5---------6-5--------6-5-------6-5---------------------------3----|
|-4-5-5-------4-5-5-----4-5-5-----4-5-5-----5-0-0-4-0—0-0-0-4-0-----------5--|

            
            
Suggest correction
Creating personal tab
Creating personal tab
You can edit any tab online and save it as your Personal.

You can edit, replace or remove any tab part or add personal notes – all changes will be seen only by you.

Personal tabs can be accessed anytime from any device, even offline.
Learn more »
comments
print report bad tab
8 comments total. Showing first comments. show 1 bad comment
0 reply
OWENBA1991 31 May 30, 2007 11:41 AM

i made thsi but some of the lines on the tab hav shifted forward so it doesnt all go so just use ur inniciative if something looks out of order. but im certain it is all right ill try and redo it to make it easier.

+1 reply
El Jimbo 117 May 31, 2007 11:13 AM

sounds brilliant mate nice

guest
Wanna post a correction for this tab? Suggest correction