Oops, an error
Loading. Please wait.

The Death Ramps bass

version 1
version 1

Whole song

Interactive

664 views 1 this week
1 commentread comment
1 2 3 4 5
1 last vote to show rating
add to favorites
×
Save as Personal and add changes to this tab that will be seen only by you. Learn more ›
×
You can save this tab as Personal to edit and correct it or add notes. All changes will be seen only by you. Learn more »
launch autoscroll
font size
0
reset
guitar tuner
backing track
0:00
0:00
edit
Autoscroll
slow
fast
+/-
esc
set tempo
stop
Author
Difficulty
G|---------5--5--|
D|-------4-------|
A|--3--3---------|
E|2--------------|

G|------------------------------------------|
D|------------------------------------------|
A|------4-3--3------4-3--3--------------11--|x4
E|2--2--------2--2--------33333333333333----|

G|------------------------------------------5--5--|
D|----------------------------------------4-------|
A|------4-3--3------4-3--3-----------3--3---------|x6
E|2--2--------2--2--------33333333-2--------------|

G|----|
D|----|
A|----|
E|2~--|

Rest...
G|--2-5-4-2------2-5-4-2----------------|
D|4----------2-4----------4-5-----5-----|
A|-----------------------------4-----4--|x3
E|--------------------------------------|

G|--2-5-4-2------2-5-4-2-----|
D|4----------2-4----------4--|
A|---------------------------|
E|---------------------------|

G|------------------------------------|
D|4-4--4/--4-4--4/--5-5--5/--5-5--5/--|
A|------------------------------------|x4
E|------------------------------------|

G|--------------------------------------------------|
D|4-4--4-44-4--4-45-5----5-5--5--4-4--4-44-4--4-45--|
A|--------------------------------------------------|
E|--------------------------------------------------|

G|---------5--5--|
D|-------4-------|
A|--3--3---------|
E|2--------------|

G|----------------------------------|
D|----------------------------------|
A|----------------------------1111--|x2
E|2222222222222222333333333333------|

G|------------------------------------------------------5--5--|
D|-----------------------------------------------------4------|
A|--------------------------------------------------3-3-------|
E|2-2--2-22-2--2-23-3----3-3--3-3--2-2--2-22-2--2-23----------|

G|-----------------|
D|-----------------|
A|-----------------|
E|2~------2-4-2-4--|

There ya go...

            
            
Suggest correction
Creating personal tab
Creating personal tab
You can edit any tab online and save it as your Personal.

You can edit, replace or remove any tab part or add personal notes – all changes will be seen only by you.

Personal tabs can be accessed anytime from any device, even offline.
Learn more »
Give kudos to tab author, rate the tab!
1 2 3 4 5
comments
print report bad tab
1 comment total.
0 reply
Domin8tor 10 Feb 14, 2013 11:01 AM

In the intro you're supposed to slide up to on the E string instead of playing a 1 on the A string.

guest
You may want to rate the tab now too:
select rating
Wanna post a correction for this tab? Suggest correction