Oops, an error
Loading. Please wait.

The Strays bass

version 2
version 2

Whole song

Interactive

by Area 11
637 views 1 this week
no commentswrite comment
1 2 3 4 5
x 3
add to favorites
×
Save as Personal and add changes to this tab that will be seen only by you. Learn more ›
×
You can save this tab as Personal to edit and correct it or add notes. All changes will be seen only by you. Learn more »
launch autoscroll
font size
0
reset
guitar tuner
edit
Autoscroll
slow
fast
+/-
esc
set tempo
stop
Area 11 The Strays bass tab, Done by figuring out what this guy had come up with and
posted through tabs and YouTube cover videos. I guarantee this is 100% correct or Maybe
even 100% correct. Even Kogie commented on the video using his account kidnfnty and said 
he was impressed video by: FergusPateman
translated into tabs(since Fergus didnt have time to put it into tabs and I was bored
one day)video link here: http://www.youtube.com/watch?v=JnrRt-y9YzA
KEY:
h=hammer on p=pull off /=slide down \=slide up x 3(for example)=repeat this number of times:
Intro:
G|---------------------------------------------------------------|
D|-----------------------------------------------12-14-12-11-----|
A|-2-2-2---2-4-4-5-5------5-4-4-5-4-2-2-4-5-7-9-10-------------12|
E|------------------3-3-3----------------------------------------|

G|---------------------------------------------------------------|
D|-9-9-9-9-11-11-11-11-12-12-12-12-14-14-14-14-14-14-14-14-12-12-|
A|---------------------------------------------------------------|
E|---------------------------------------------------------------|

G|---------------------------------------------------------------|
D|-12-12-11-11-11-11-9-9-9-9\3-----------------------------|-----|
A|----------------------------play the tens short and long V-----|
E|-----------------------------3-3-3-3-5-5-5-5-7-7-7-7-10-10-10--|

G|---------------------------------------------------------------|
D|--------------------------------9-9-9-9-9-9-9-9-11-11-11-11-11-|
A|---------------------------------------------------------------|
E|-3-3-3-3-5-5-5-5-7-7-7-7-5-5-5-5-------------------------------|

G|------------------------------------------11/3-----------------|
D|-11-11-11-12-12-12-12-12-12-12-12-14-14-14---------------------|
A|---------------------------------------------------------------|
E|----------------------------------------------3-3-3-3-5-5-5-5-7|



G|------------------------------|
D|------------------------------|
A|------------------------------|
E|7-7-7-5-5-5-5-2-2-2-5-5-5-5---|


Constant riff 1:
G|-----------------------------------------------------------------|
D|-----------------------------------------------------------------|
A|2-4-5---4-5----------------5-5-5-5---------2-2-2-2-2-4-5---------|
E|------5-----2-2-2-2-3-3-3-3--------5-5-5-5--------------5-5-5-5-5|

G|-----------------------------------|
D|-----------------------------------|
A|-4-5----------------5-5-5-5--------|
E|----2-2-2-2-3-3-3-3--------5-5-5-5-|

Verse:
G|------------------------------------------|
D|------------------------------------------|
A|-2-----------5---2-------5----0-0-1h2-----|
E|--------3-----5-------------3-------------|

BRIDGE:
G|------------------------------------------7---7-----------------|
D|--------4-2-4-2-0-2-0-------------------7----7------------------|
A|2-2-2-2---------------2-0---------5-5-5----0---2-2-2-2-2-4-5----|
E|--------------------------3-3-3-3--3------------------------5-5-|

G|------------------------------------------|
D|------------------------------------------|
A|------4-5-----------------5-5-5-5---------|
E|5-5-5-----2-2-2-2-3-3-3-3--------5-5-5-5--|


Chorus:
G|------------------------------------------7---------------------|
D|-------------------------------------------7----------7-7-------|
A|--------------------7-7-7-7-7p5-5-5-5-5-5---5----------7--------|
E|-7-7-7-7-7-7-7-7-7---------------------------5-5-5-5-5----------|

G|--------------------------7-7-7-7-9-7------7h9-11-9-7-----------|
D|------------7----------7h9-----------9-7h9----------------------|
A|---------7h9-9------7h9-----------------------------------------|
E|-7-7-7-7-------7-7-7--------------------------------------------|



G|------------------------------------------7---------------------|
D|-------------------------------------------7-----------7-7------|
A|--------------------7-7-7-7-7p5-5-5-5-5-5---5-----------7-------|
E|-7-7-7-7-7-7-7-7-7---------------------------5-5-5-5-5----------|

G|-----------------------------7-7-7-7-9-7--------9-7-------------|
D|------------7------------7h9------------7-7-7-7----9/3----------|
A|---------7h9-9--------7h9---------------------------------------|
E|-7-7-7-7--------7-7-7-------------------------------------------|

Constant riff/solo on guitar:
G|----------------------------------------------------------------|
D|----------------------------------------------------------------|
A|-2-2-2-2-2-4-5---------4-5----------------5-5-5-5---------------| X 3
E|--------------5-5-5-5-5---2-2-2-2-3-3-3-3--------5-5-5-5--------|
Verse:
G|------------------------------------------|
D|------------------------------------------|
A|-2-----------5---2-------5----0-0-1h2-----|
E|--------3-----5-------------3-------------|

BRIDGE:
G|------------------------------------------7---7-----------------|
D|--------4-2-4-2-0-2-0-------------------7----7------------------|
A|2-2-2-2---------------2-0---------5-5-5----0---2-2-2-2-2-4-5----|
E|--------------------------3-3-3-3--3------------------------5-5-|

G|------------------------------------------|
D|------------------------------------------|
A|------4-5-----------------5-5-5-5---------|
E|5-5-5-----2-2-2-2-3-3-3-3--------5-5-5-5--|


Chorus:
G|------------------------------------------7---------------------|
D|-------------------------------------------7----------7-7-------|
A|--------------------7-7-7-7-7p5-5-5-5-5-5---5----------7--------|
E|-7-7-7-7-7-7-7-7-7---------------------------5-5-5-5-5----------|

G|--------------------------7-7-7-7-9-7------7h9-11-9-7-----------|
D|------------7----------7h9-----------9-7h9----------------------|
A|---------7h9-9------7h9-----------------------------------------|
E|-7-7-7-7-------7-7-7--------------------------------------------|



G|------------------------------------------7---------------------|
D|-------------------------------------------7-----------7-7------|
A|--------------------7-7-7-7-7p5-5-5-5-5-5---5-----------7-------|
E|-7-7-7-7-7-7-7-7-7---------------------------5-5-5-5-5----------|

G|-----------------------------7-7-7-7-9-7--------9-7-------------|
D|------------7------------7h9------------7-7-7-7----9/3----------|
A|---------7h9-9--------7h9---------------------------------------|
E|-7-7-7-7--------7-7-7-------------------------------------------|

Constant riff again with new ending:
G|----------------------------------------------------------------|
D|----------------------------------------------------------------|
A|-2-2-2-2-2-4-5---------4-5----------------5-5-5-5---------------|
E|--------------5-5-5-5-5---2-2-2-2-3-3-3-3--------5-5-5-5--------|

G|---------------------------------------------------------|
D|---------------------------------------------------------|
A|-2-2-2-2-2-4-5-------------------------------------------|
E|--------------2-2-2-2-2-3-5-0-0-0-0-2-2-2-2-3-3-3-3-5-5-5|

DO YOU REMEMBER WHEN THE STARS WERE MUCH HIGHER:
G|----------------------------------------------------------------|
D|----------------------------------------------------------------|
A|--5--------------------7----------------------------------------|
E|--------------5----------------3-3-3-3-3-3-3-3-3-3-3-3----------|

G|----------------------------------------------------------------|
D|-----7---5-4----7---5-4-----9---7-5-----------------------------|
A|--5---------0-----------7---------------------------------------|
E|------------------------------------3-3-3-3-3-3-3-3-3-3-3-------|



Back to the constant riff:
G|----------------------------------------------------------------|
D|----------------------------------------------------------------|
A|-2-2-2-2-2-4-5---------4-5----------------5-5-5-5---------------|X 5
E|--------------5-5-5-5-5---2-2-2-2-3-3-3-3--------5-5-5-5--------|

Outro/Last Chorus except you pause in the beginning and pick up on 7A sting:

G|------------------------------------------7---------------------|
D|-------------------------------------------7-----------7-7------|
A|--------------------7-7-7-7-7p5-5-5-5-5-5---5-----------7-------|
E|-R-e-s-t-i-n-g--------------------------------5-5-5-5-5---------|

G|----------------------------7-7-7-7-9-7------7h9-11-9-7---------|
D|------------7------------7h9-----------9-7h9--------------------|
A|---------7h9-9--------7h9---------------------------------------|
E|-7-7-7-7-------7-7-7-7------------------------------------------|



G|------------------------------------------7---------------------|
D|-------------------------------------------7-----------7-7------|
A|--------------------7-7-7-7-7p5-5-5-5-5-5---5-----------7-------|
E|-7-7-7-7-7-7-7-7-7---------------------------5-5-5-5-5----------|

G|-------------------------------7-7-7-7-9-7----------------------|
D|------------7--------------7h9-------------7--------9-----------|
A|---------7h9-9----------7h9-------------------------------------|
E|-7-7-7-7--------7-7-7-7-----------------------------------------|

            
            
Suggest correction
Creating personal tab
Creating personal tab
You can edit any tab online and save it as your Personal.

You can edit, replace or remove any tab part or add personal notes – all changes will be seen only by you.

Personal tabs can be accessed anytime from any device, even offline.
Learn more »
Give kudos to tab author, rate the tab!
1 2 3 4 5
comments
print report bad tab
guest
Wanna post a correction for this tab? Suggest correction