Oops, an error
Loading. Please wait.

The Imperial Clans tab

734 views 1 this week
no commentswrite comment
1 2 3 4 5
3 more votes to show rating
add to favorites
×
Save as Personal and add changes to this tab that will be seen only by you. Learn more ›
×
You can save this tab as Personal to edit and correct it or add notes. All changes will be seen only by you. Learn more »
launch autoscroll
font size
0
reset
how to read this tab
guitar tuner
edit
Autoscroll
slow
fast
+/-
esc
set tempo
stop
Author
Band:  Arghoslent
Album: Galloping Through the Battle Ruins
Song: The Imperial Clans

Copyright (c) Wood Nymph Records 1998

.  - palm mute           /  - slide up to
\  - slide down to       ~  - vibrato
h  - hammer on           b  - Bend
p  - pull off            Suffixes for bend
t  - tap                 f  - full bend    h - half bend
<> - pinched harmonic    q  - quarter bend t - tap bend
*  - see comment         ^  - Hold bend    r release bend
x  - Staccato            ~  - vibrato bend
,  - slight palm mute    () - ghost note, sustained note
"  - tremolo note

Tuning: Eb Ab Db Gb Bb Eb

Intro:
 Riff 1
|---------------------------------------|
|---------------------------------------|
|-7----10----9----7----5-3-2-3-2-0-2----|
|-0-00-0--00-0-00-0-00-0-0-0-0-0-0-0-00-|
|---------------------------------------|
|---------------------------------------|
pm  ..    ..   ..   ..               ..

 Riff 2
|-------------------------------|
|-------------------------------|
|-------------------------------|
|-2-----2--2--2-7-7-------------|
|-3-333-3--3--3-5-5-7-8-7\5-7\5-|
|-------------------5-6-5\3-5\3-|
pm  ...

 Fill 1
|---------------------------|
|---------------------------|
|---------------7--7--7--5--|
|-2-----2--2--2-7--7--7--5--|
|-3-333-3--3--3-5--5--5--3--|
|---------------------------|
pm  ...

 Fill 2
|---------------|
|---------------|
|---------------|
|-2-----2--2--2-|
|-3-333-3--3--3-|
|---------------|
pm  ...

 Riff 3
|-----------------------------------------------------------------------|
|-----------------------------------------------------------------------|
|-7--7-7-7-7--7-7-7----------------------7--7-7-7-7--7-7-7-6--9---5--1--|
|-7--7-7-7-7--7-7-7-8-8-8-11--7-7-7-10---7--7-7-7-7--7-7-7-8--11--7--3--|
|-5--5-5-5-5--5-5-5-8-8-8-11--7-7-7-10---5--5-5-5-5--5-5-5-8--11--7--3--|
|-5--5-5-5-5--5-5-5-6-6-6-9---5-5-5-8----5--5-5-5-5--5-5-5-6--9---5--1--|

 Riff 3 (cont'd)
|-------------------------------------------------------------------------------|
|-------------------------------------------------------------------------------|
|-7--7-7-7-7--7-7-7----------------------7--7-7-7-7--7-7-7----------------------|
|-7--7-7-7-7--7-7-7-8-8-8-11--7-7-7-10---7--7-7-7-7--7-7-7-8-8-8-6-6-6-4-4-4-5--|
|-5--5-5-5-5--5-5-5-8-8-8-11--7-7-7-10---5--5-5-5-5--5-5-5-8-8-8-6-6-6-4-4-4-5--|
|-5--5-5-5-5--5-5-5-6-6-6-9---5-5-5-8----5--5-5-5-5--5-5-5-6-6-6-4-4-4-2-2-2-3--|

 Riff 4
|------------------------------------------------------------|
|----------------------------------------------------5-------|
|------------------------2--2/4-4-444--------777-777---6~----|
|-------4--4-4---------4--------------4--4-4--------------7--|
|-2-222--------555-4-5---------------------------------------|
|------------------------------------------------------------|
pm  ...        ... . .                       ... ...

 Riff 5
|-------------------------------------------------|
|-------------------------------------------------|
|-4---4---4---------------4---4---4~~-------------|
|-4---4---4---2-0-2-3-2-0-4---4---4~~-2-0-2-3-2-0-|
|-2---2---2---2-0-2-3-2-0-2---2---2~~-2-0-2-3-2-0-|
|-2---2---2---------------2---2---2~~-------------|

 Riff 6
|-------------------------------------------------|
|-------------------------------------------------|
|-------------------------------------------------|
|-------3-----------3-----------3-----2-0-2-3-2-0-|
|-2-0-2---2-0-2-0-2---2-0-2-0-2---2-0-------------|
|-------------------------------------------------|

 Riff 6a
|---------------------------------------------------------------------------|
|---------------------------------------------------------------------------|
|---------------------------------------------------------------------------|
|-------3-----------3-----------3-----2-3-2-0-2-0---0-----------------------|
|-2-0-2---2-0-2-0-2---2-0-2-0-2---2-0-------------3---3-2-0-2-3-333-3-2-0-2-|
|---------------------------------------------------------------------------|

 Riff 7
|----------------------------------------------|
|----------------------------------------------|
|------------7--7-7-7-7-5--5-5-5-5-4-4-4-------|
|-7--7-7-7-7-7--7-7-7-7-5--5-5-5-5-4-4-4-7--5--|
|-7--7-7-7-7-5--5-5-5-5-3--3-3-3-3-2-2-2-7--5--|
|-5--5-5-5-5-----------------------------5--3--|

 Riff 8
|---------------------------------------------|
|---------------------------------------------|
|---------------------------------------------|
|-5-3-2-3-2---2-------------------2-3-2-----2-|
|-----------5---5-3-5-3-2---2-3-5-------5-3---|
|-------------------------5-------------------|

 Riff 9
|---------------------------------------------|
|---------------------------------------------|
|---------------------------------------------|
|-------2--2-------3--3-------2--2-------0--0-|
|-0-000------0-000------0-000------0-000------|
|---------------------------------------------|
pm. ...      . ...      . ...      . ...
 Riff 9 (cont'd)
|--------------------------------------------------------|
|--------------------------------------------------------|
|--------------------------------------------------------|
|-------2--2-------3--3-------2--2-------0--0-0----------|
|-0-000------0-000------0-000------0-000--------3-2-0--0-|
|--------------------------------------------------------|
pm. ...      . ...      . ...      . ...

 Guitar Solo
|--------------------------------------------------------|
|--------------------------------------------------------|
|-7-777-9-77-9-10-9-7-9-7----7---------------------------|
|-------------------------10---10-9-10-9-7-9-7----7--7p5-|
|----------------------------------------------10--------|
|--------------------------------------------------------|

|----------------------------------------|
|----------------------------------------|
|----------------------------------------|
|----------------------------------------|
|-8-888-8-7-5-7-777-7-5---5-555-5--------|
|-----------------------8---------8-7-5--|

|-5---5-7-5-7-8-7-5-7~--10bf-10^-10^-10r-------------12~-|
|---5------------------------------------13-12h13p12-----|
|--------------------------------------------------------|
|--------------------------------------------------------|
|--------------------------------------------------------|
|--------------------------------------------------------|

|-17-17-17-17-15------------------------------------------------|
|----------------18-17--15-18p17p15-17bh-17-15----15------------|
|----------------------------------------------17----17-16--15\-|
|---------------------------------------------------------------|
|---------------------------------------------------------------|
|---------------------------------------------------------------|

|---------------------------------------------|
|-----^^-----------------------6p5----<5>--5\-|
|-7bf-777r-5-555-4-------4-5-7-----7-5--------|
|--------------------5-7----------------------|
|---------------------------------------------|
|---------------------------------------------|

|--------------------------------------------|
|-5-6-5-6-5----------------------------------|
|-----------7-5-4-5-7---4-5-4-5-4-----5-4----|
|---------------------------------7-5-----7--|
|--------------------------------------------|
|--------------------------------------------|

|-------------------------------------------------------------|
|-------------------------------------------------------------|
|-------------------------------------------------------------|
|-7----7-5----5--------5----5-7----7-9--10-9-7-9-10-9-7----7~-|
|----8------7---8--5-8----7------8----------------------10----|
|-------------------------------------------------------------|

 Fill 3
|-------------------|
|-------------------|
|-------------------|
|-------------------|
|-5-3-2-3-2---2-----|
|-----------5---5-3-|

 Riff 10
|----------------------------------------------|
|----------------------------------------------|
|----------------------------------------------|
|----------------------------------------------|
|------3-2---2--2-5-3-2-3--3-5-3-2-3-2---2-----|
|-5--5-----5---------------------------5---5-3-|

 Riff 10a
|----------------------------------------------|
|----------------------------------------------|
|------5-4---4--4-7-5-4-5--5-7-5-4-5-4---4-----|
|-7--7-----7---------------------------7---7-5-|
|----------------------------------------------|
|----------------------------------------------|

 Final Chord
         |-----|
         |-----|
         |-----|
Guitar 1 |-7---|
         |-----|
Guitar 2 |-5---|

Structure:
Riff 1 x2
Riff 2 x3
Fill 1 x1
Riff 1 x4
Riff 2 x3
Fill 2
Riff 3 x2
Riff 1 x2
Riff 2 x3
Fill 1 x1
Riff 1 x4
Fill 2
Riff 3 x2
Riff 4 x4
Riff 4 x2 slower
Riff 5 x1
Riff 6 x1
Riff 6a x1
Riff 7 x4
Riff 6 x4
Riff 8 x2
Riff 9 x2
Guitar Solo w/Riff 9 x4
Riff 6 x3
Riff 6a x1
Fill 3 x1
Riff 10 x4
Riffs 10 & 10a x4
Final Chord

            
            
Suggest correction
Creating personal tab
Creating personal tab
You can edit any tab online and save it as your Personal.

You can edit, replace or remove any tab part or add personal notes – all changes will be seen only by you.

Personal tabs can be accessed anytime from any device, even offline.
Learn more »
Give kudos to tab author, rate the tab!
1 2 3 4 5
comments
print report bad tab
guest
You may want to rate the tab now too:
select rating
Wanna post a correction for this tab? Suggest correction