Oops, an error
Loading. Please wait.

The Purging Fires Of War tab

version 1
version 1

Whole song

Interactive

568 views 1 this week
no commentswrite comment
1 2 3 4 5
2 more votes to show rating
add to favorites
×
Save as Personal and add changes to this tab that will be seen only by you. Learn more ›
×
You can save this tab as Personal to edit and correct it or add notes. All changes will be seen only by you. Learn more »
launch autoscroll
font size
0
reset
how to read this tab
guitar tuner
edit
Autoscroll
slow
fast
+/-
esc
set tempo
stop
Band:  Arghoslent
Album: Incorrigible Bigotry
Song:  The Purging Fires of War

arghoslent.cjb.net

Tabbed by: Zach Kraemer

Copyright (c) Drakkar Productions 2002

.  - palm mute           b  - Bend
/  - slide up to         r release bend
\  - slide down to       ~  - vibrato bend
~  - vibrato
h  - hammer on
p  - pull off

Tuning: DGCFAD

 Riff 1
|-----------------------------------------------------------------------|
|-----------------------------------------------------------------------|
|-----------------------------------------------------------------------|
|-5------5------5------5-5-5-5-5-5\4-2------2------2-2-------2----------|
|-7------7------7------7-7-7-7-7-7\5-3-3333-3-3333-3-3-0-000-3--0-------|
|---0000---0000---0000--------------------------------------------<3>br-|
pm  ....   ....   ....                 ....   ....     . ...

 Riff 1a
|---------------------------------------------------------------------------------|
|---------------------------------------------------------------------------------|
|---------------------------------------------------------------------------------|
|-5------5------5------5-5-5-5-5-5\7-9-------9-------9--9--7------7--------<9>br--|
|-7------7------7------7-7-7-7-7-7\9-10-1010-10-1010-10-10-9-9999-9-9999-7--------|
|---0000---0000---0000------------------------------------------------------------|
pm  ....   ....   ....                  . .     . .          ....   ....

 Riff 2
|-----------------------------------------------------------------|
|-----------------------------------------------------------------|
|-----------------------------------------------------------------|
|-5-----5-----------5-----4-4---4\2-----2-----------2-------------|
|-7-----7-----------7-----5-5---5\3-----3-----------3-----3-3-3\2-|
|---0-0---0-0-0-0-0---0-0-----0-----0-0---0-0-0-0-0---0-0-5-5-5\3-|
pm  . .   . . . . .   . .     .     . .   . . . . .   . .

 Fill 1
|---------|
|---------|
|---------|
|---------|
|-10------|
|---------|
|
|Fill 1a
|---------|
|---------|
|---------|
|-2-------|
|-2-------|
|-0-------|

 Riff 3
|-----------------------------------------|
|-----------------------------------------|
|-2h5p2-----2h5p2-----2h5p2-----2h5p2-----|
|-------2br-------2br-------2br-------2br-|
|-----------------------------------------|
|-----------------------------------------|

 Riff 4
|------------------------------------------------------------|
|-8------------------------------8---------------------------|
|-9----11--12----12----11--9-----9---11--12----12----14--9---|
|-9----11--12----12----11--9-----9---11--12----12----14--9---|
|-7----9---10----10----9---7-----7---9---10----10----12--7---|
|------------------------------------------------------------|

|------------------------------------------------------------------------|
|-10---------------------------------------------------------------------|
|-10----9--9-9--7---9----7--7-7--5---7----5--5-5--4----7--2----2----2----|
|-10----9--9-9--7---9----7--7-7--5---7----5--5-5--4----7--2----2----2----|
|-8-----7--7-7--5---7----5--5-5--3---5----3--3-3--2----5--0----0----0----|
|------------------------------------------------------------------------|

Fill 2
|------------------------------------------|
|------------------------------------------|
|-5~~~~~-----------------------------------|
|---------[Bass Riff]----------------------|
|------------------------------------------|
|----------------------0-0-3-0-5-0-8-0-7-0-|
|pm                    . . . . . . . . . .
|Fill 2a
|------------------------------------------|
|------------------------------------------|
|-2~~~~~-----------------------------------|
|-2~~~~~--[Bass Riff]----------------------|
|-0~~~~~-----------------------------------|
|----------------------0-0-3-0-5-0-8-0-7-0-|
pm                     . . . . . . . . . .

 Riff 5
|----------------------------------------------------------------------|
|----------------------------------------------------------------------|
|----5--5-----------9---9--------------4--4----------------------------|
|-7--7--7-7-7-7-10--10--10-10-10-10-5--5--5-5-5-5----------------------|
|-7--7--7-7-7-7-10--10--10-10-10-10-5--5--5-5-5-5----------------------|
|-5--5--5-5-5-5-8---8---8--8--8--8--3--3--3-3-3-3--0-0-3-0-5-0-8-0-7-0-|
pm                                                 . . . . . . . . . .

 Riff 6
|-------------------------------------------------|
|-------------------------------------------------|
|-------------------------------------------------|
|-------------------------------------10------12--|
|----------3-----------3-----------3--8-------10--|
|-5--8p7p5-3--5--8p7p5-3--5--8p7p5-3--8---7-8-10--|
pm                                        . .

 Riff 6 (cont'd)
|------------------------------------------------|
|------------------------------------------------|
|------------------------------------------------|
|-------------------------------------10------9--|
|----------3-----------3-----------3--8-------7--|
|-5--8p7p5-3--5--8p7p5-3--5--8p7p5-3--8---5-8-7--|
pm                                        . .

 Riff 7
|-------------------------------------------|
|-6--6-6-6------------1--1-1-1--------------|
|-7--7-7-7--5--4-5-4--2--2-2-2--------------|
|-7--7-7-7--5--4-5-4--2--2-2-2--10--9-10-9--|
|-5--5-5-5--3--2-3-2--0--0-0-0--8---7-8--7--|
|-------------------------------8---7-8--7--|

 Riff 8
|-----------------|
|-----------------|
|-5-----9---------|
|-7-----10--------|
|-7-----10-----5--|
|-5-----8---0--3--|
pm          .

 Riff 7a
|-------------------------------------------|
|-------------6--6-6-6------------1--1-1-1--|
|-------------7--7-7-7--5--4-5-4--2--2-2-2--|
|-10--9-10-9--7--7-7-7--5--4-5-4--2--2-2-2--|
|-8---7-8--7--5--5-5-5--3--2-3-2--0--0-0-0--|
|-8---7-8--7--------------------------------|

 Riff 9
|----------------------------------------------------------------------------------|
|---------------------------------------------------------------------------[5]----|
|-5-5-5-10-10-10-10-10-5-5-5--------------------------[5]------------[55]------[5]-|
|-7-7-7-10-10-10-10-10-5-5-5-6-6-6-6-6---------[55]------[5]-------------[5]-------|
|-7-7-7-8--8--8--8--8--3-3-3-6-6-6-6-6-7-777-------[5]-------7-777-----------------|
|-5-5-5----------------------4-4-4-4-4-5-555-5---------------5-555-5---------------|
pm                                     . ... .               . ... .

 Riff 9a
|--------------------------------------------------------|
|--------------------------------------------------------|
|-5-5-5-10-10-10-10-10-5-5-5-----------------------------|
|-7-7-7-10-10-10-10-10-5-5-5-6-6-6-6-6-------------------|
|-7-7-7-8--8--8--8--8--3-3-3-6-6-6-6-6-8-8-8875----------|
|-5-5-5----------------------4-4-4-4-4----------8-8-8875-|
pm                                     . . .... . . ....

 Riff 10
|-------------------------------------|
|-------------------------------------|
|-------------------------------------|
|-------------------------------------|
|-7-----10---5/7----8-8-8875----------|
|-5-000-8--0-3/5-0-----------8-8-8875-|
pm  ...    .     .  . . .... . . ....

 Riff 11
|------------------------------------|
|------------------------------------|
|------------------------------------|
|------------------------------------|
|-7-----10---5/7-----10---5/7--------|
|-5-000-8--0-3/5-000-8--0-3/5-8-8888-|
pm  ...    .     ...    .     . ....

 Final Chord
|-----|
|-----|
|-----|
|-7---|
|-7---|
|-5---|

Structure
Riff 1 x4  [Gtr 2 plays Riff 1a on 3rd time]
Riff 2 x2
Riff 1 x2
Riff 2 x2
Riff 1 x4  [Gtr 2 plays Riff 1a on 3rd time]
Fill 1 & 1a x1
Riff 3 x2
Riff 4 x1 w/Riff 3 x17
Fill 2 & 2a x1
Riff 5 x4
Riff 6 x2
Riff 5 x4
Riff 6 x2
Riff 7 x4
Riff 8 x8
Riff 7a x4
Riff 8 x8
Riff 7a x4
Riff 9 x3
Riff 9a x1
Riff 10 x3
Riff 9 x3
Riff 9a x1
Riff 10 x3
Riff 11 x4

            
            
Suggest correction
Creating personal tab
Creating personal tab
You can edit any tab online and save it as your Personal.

You can edit, replace or remove any tab part or add personal notes – all changes will be seen only by you.

Personal tabs can be accessed anytime from any device, even offline.
Learn more »
Give kudos to tab author, rate the tab!
1 2 3 4 5
comments
print report bad tab
guest
You may want to rate the tab now too:
select rating
Wanna post a correction for this tab? Suggest correction