Oops, an error
Loading. Please wait.

I Was Wrong tab

by Arizona
2,866 views 12 this week
1 commentread comment
1 2 3 4 5
x 4
add to favorites
×
Save as Personal and add changes to this tab that will be seen only by you. Learn more ›
×
You can save this tab as Personal to edit and correct it or add notes. All changes will be seen only by you. Learn more »
launch autoscroll
font size
0
reset
how to read this tab
guitar tuner
edit
Autoscroll
slow
fast
+/-
esc
set tempo
stop
Some reverb and delay if you're trying to match the tone. 


[Intro]

e|---------------------------------------------------------------------------|
B|---------------------------------------------------------------------------|
G|----8---8---8---8---6---6---6---6---10---10---10---10---10---10---10---10--|
D|---------------------------------------------------------------------------|
A|---------------------------------------------------------------------------| (x2)
D|--9-----------9---8-----------8---11-------------11---11-------------11----|


[Verses]

  "Oh I can see the doubt in those eyes, even though you try to hide it."
e|---------------------------------------------------------------------------|
B|---------------------------------------------------------------------------|
G|----8---8---8---8---6---6---6---6---10---10---10---10---10---10---10---10--|
D|---------------------------------------------------------------------------|
A|---------------------------------------------------------------------------| 
D|--9---9---9---9---8---8---8---8---11---11---11---11---11---11---11---11----|

  "There's not much to figure out 'Cause I know why. And I won't try to fight it, try to fight it"
e|---------------------------------------------------------------------------|
B|---------------------------------------------------------------------------|
G|----8---8---8---8---6---6---6---6---10---10---10---10---10---10---10---10--|
D|---------------------------------------------------------------------------|
A|---------------------------------------------------------------------------| 
D|--9---9---9---9---8---8---8---8---11---11---11---11---11---11---11---11----|


[Prechorus]

 "And I'll be the first to tell you, you were right. Oh you were right, oh you were right"
e|---------------------------------------------------------------------------|
B|---------------------------------------------------------------------------|
G|----8---8---8---8---6---6---6---6---10---10---10---10---10---10---10---10--|
D|---------------------------------------------------------------------------|
A|---------------------------------------------------------------------------| 
D|--9---9---9---9---8---8---8---8---11---11---11---11---11---11---11---11----|

  "Won't try to say I'm sorry this time, but I want you to know that I was.."
e|---------------------------------------------------------------------------|
B|---------------------------------------------------------------------------|
G|----4---4---4---4---3---3---3---3---10---10---10---10---10---10---10---10--|
D|---------------------------------------------------------------------------|
A|---------------------------------------------------------------------------| 
D|--6---6---6---6---4---4---4---4---11---11---11---11---11---11---11---11----|


[Chorus]

           "..wrong. I know, I know. I just wanna say that I was.."
e|---------------------------------------------------------------------------|
B|---------------------------------------------------------------------------|
G|----8---8---8---8---6---6---6---6---10---10---10---10---10---10---11---11--|
D|---------------------------------------------------------------------------|
A|---------------------------------------------------------------------------| (x4)
D|--9---9---9---9---8---8---8---8---11---11---11---11---11---11---13---13----|


[Verses]

  "Used to be so warm, those days. I try not to remember"
e|---------------------------------------------------------------------------|
B|---------------------------------------------------------------------------|
G|----8---8---8---8---6---6---6---6---10---10---10---10---10---10---10---10--|
D|---------------------------------------------------------------------------|
A|---------------------------------------------------------------------------| 
D|--9---9---9---9---8---8---8---8---11---11---11---11---11---11---11---11----|

 "I got lost in the storm of my ways. Couldn't pull myself together, self together"
e|---------------------------------------------------------------------------|
B|---------------------------------------------------------------------------|
G|----8---8---8---8---6---6---6---6---10---10---10---10---10---10---10---10--|
D|---------------------------------------------------------------------------|
A|---------------------------------------------------------------------------| 
D|--9---9---9---9---8---8---8---8---11---11---11---11---11---11---11---11----|


[Prechorus]

"And I'll be the first to tell you, you were right. Oh you were right, oh you were right"
e|---------------------------------------------------------------------------|
B|---------------------------------------------------------------------------|
G|----8---8---8---8---6---6---6---6---10---10---10---10---10---10---10---10--|
D|---------------------------------------------------------------------------|
A|---------------------------------------------------------------------------| 
D|--9---9---9---9---8---8---8---8---11---11---11---11---11---11---11---11----|

   "Won't try to say I'm sorry this time, but I want you to know that I was.."
e|---------------------------------------------------------------------------|
B|---------------------------------------------------------------------------|
G|----4---4---4---4---3---3---3---3---10---10---10---10---10---10---10---10--|
D|---------------------------------------------------------------------------|
A|---------------------------------------------------------------------------| 
D|--6---6---6---6---4---4---4---4---11---11---11---11---11---11---11---11----|


[Chorus]

           "..wrong. I know, I know. I just wanna say that I was.."
e|---------------------------------------------------------------------------|
B|---------------------------------------------------------------------------|
G|----8---8---8---8---6---6---6---6---10---10---10---10---10---10---11---11--|
D|---------------------------------------------------------------------------|
A|---------------------------------------------------------------------------| (x4)
D|--9---9---9---9---8---8---8---8---11---11---11---11---11---11---13---13----|


[Outro]

e|---------------------------------------------------------------------------|
B|---------------------------------------------------------------------------|
G|----8---8---8---8---6---6---6---6---10---10---10---10---10---10---10---10--|
D|---------------------------------------------------------------------------|
A|---------------------------------------------------------------------------| (x3)
D|--9---9---9---9---8---8---8---8---11---11---11---11---11---11---11---11----|

e|---------------------------------------------------------------------------|
B|---------------------------------------------------------------------------|
G|----4---4---4---4---3---3---3---3---10---10---10---10---10---10---10---10--|
D|---------------------------------------------------------------------------|
A|---------------------------------------------------------------------------| 
D|--6---6---6---6---4---4---4---4---11---11---11---11---11---11---11---11----|

e|---------------------------------------------------------------------------|
B|---------------------------------------------------------------------------|
G|----8---8---8---8---6---6---6---6---10---10---10---10---10---10---11---11--|
D|---------------------------------------------------------------------------|
A|---------------------------------------------------------------------------| (x4)
D|--9---9---9---9---8---8---8---8---11---11---11---11---11---11---13---13----|

            
            
Suggest correction
Creating personal tab
Creating personal tab
You can edit any tab online and save it as your Personal.

You can edit, replace or remove any tab part or add personal notes – all changes will be seen only by you.

Personal tabs can be accessed anytime from any device, even offline.
Learn more »
comments
print report bad tab
1 comment total.
0 reply
tmcdaid 57 Dec 20, 2016 10:56 PM

Opening the tab up to the community to try and get it to the actual Arizona page. No idea wtf is going on.

guest
You may want to rate the tab now too:
select rating
Wanna post a correction for this tab? Suggest correction