Oops, an error
Loading. Please wait.

Clamour For Glamour tab

version 1
version 1

Whole song

Interactive

by Ark
11,182 views 3 this week
2 commentsread comments
1 2 3 4 5
x 5
add to favorites
×
Save as Personal and add changes to this tab that will be seen only by you. Learn more ›
×
You can save this tab as Personal to edit and correct it or add notes. All changes will be seen only by you. Learn more »
launch autoscroll
font size
0
reset
how to read this tab
guitar tuner
edit
Autoscroll
slow
fast
+/-
esc
set tempo
stop
By: Alexander from Sweden

            Play 4 times as intro, interlude and outrochorus
        |------------------------------------------------------| 
|-------------------------------------------------------3p2------------|
|----------------------------------------------5----3-------3----------|
|---------------------------------7--5--x-5--5--------2-------2--------|
|-------2----0-2-0-2-0--9--x-9--9----5--x-5-------0--------------------|
|-------0----0-0-0-0-0--7--x-7-------3--x-3----------------------------|
|-0-3-0----------------------------------------------------------------|

During the "game to play" part
1.                2.
|-2----0--2--3--2-|-2--------|
|-3----3--3--3--3-|-3--------|
|-2----2--2--2--2-|-2--------|
|-0----0--0--0--0-|-0--------|
|-----------------|----------|
|-----------------|----------|

Chorus
|-------------------------------------------------3p2------------|
|----------------------------------------5----3-------3----------|
|---------------------------7--5--x-5--5--------2-------2--------| 2 times
|-2----0-2-0-2-0--9--x-9--9----5--x-5-------0--------------------|
|-0----0-0-0-0-0--7--x-7-------3--x-3----------------------------|
|----------------------------------------------------------------|

|---------------------------------------0--------|
|---------------------------------------0--------|
|---------------------------------------0--------|
|-10---5----7--------10---5----7--------2--------|
|-8----3----5--------8----3----5--------2--------|
|---------------------------------------0--------|

Licks
2:10                               
|-10b--10-8-10-8-------------------------|
|----------------s10b--10-8-5------------|
|-----------------------------7----------| Could'nt figure out the tremolo-
|-------------------------------7--------| pickingpart to 100%
|----------------------------------------| 
|----------------------------------------|

Ending
|------------------------------3-------------------------------|
|------------------------------3-------------------------------|
|------------------------------0-------------------------------|
|-10---5----7--------10---5---------------------------2--------|
|-8----3----5--------8----3---------------------------0--------|
|-----------------------------------------------0-3-0----------|

            
            
Suggest correction
Creating personal tab
Creating personal tab
You can edit any tab online and save it as your Personal.

You can edit, replace or remove any tab part or add personal notes – all changes will be seen only by you.

Personal tabs can be accessed anytime from any device, even offline.
Learn more »
comments
print report bad tab
2 comments total.
0 reply
Wolfenman 10 Aug 20, 2009 12:03 AM

Ok, jag tror nog att fillet vid 2:10 ska vara så här

Licks
2:10
|-12--8--10-8----------------------------|
|-------------10-8--10--8--5-3-1---------|
|-------------------------------2--------|
|----------------------------------------|
|----------------------------------------|
|----------------------------------------|

Kollade massor på följande länk, och lyssnade om och om igen så är väldigt väldigt säker på att detta är vad han spelar: http://www.youtube.com/watch?v=FIL_XfavhiI

0 reply
Wolfenman 10 Jun 07, 2010 09:36 AM

I added two notes that I felt were missing. I'm quite sure they are correct.

|-----------------------------------------------------------3p2----------|
|------------------------------------------------5------3-------3--------|
|---------------------------------7----5--x-5--5------2---2-------2------|
|-------2----0-2-0-2-0--9--x-9--9------5--x-5-------0--------------------|
|-------0----0-0-0-0-0--7--x-7------3--3--x-3----------------------------|
|-0-3-0------------------------------------------------------------------|

guest
Wanna post a correction for this tab? Suggest correction