Oops, an error
Loading. Please wait.

Ballad Of Hugo Chavez bass

version 1
version 1

Whole song

Interactive

by Arkells
2,916 views 1 this week
1 commentread comment
1 2 3 4 5
x 3
add to favorites
×
Save as Personal and add changes to this tab that will be seen only by you. Learn more ›
×
You can save this tab as Personal to edit and correct it or add notes. All changes will be seen only by you. Learn more »
launch autoscroll
font size
0
reset
guitar tuner
edit
Autoscroll
slow
fast
+/-
esc
set tempo
stop
Author
Difficulty
(0:16) Intro
G|-----------------------------------------|
D|-----------------2-4-4-44-2-4-4-4--------|
A|-0-0-00-2-4-4-44------------------4-2-0--|
E|-----------------------------------------|

G|------------------------------------|
D|-----------------2-4-4-44-2-4-4-2~--|
A|-0-0-00-2-4-4-44--------------------|
E|------------------------------------|

Verse
G|-----------------------|----------------------|
D|--------------------2--|----------------------|
A|-----1---0---2--2-4----|-----1---0---2--------|
E|-2---------------------|-2---------------14\--|

G|----------------------------------------|
D|-------------------------------------2--|
A|----------1-1-1-1--0-0-0-0--2-2-2-24----|
E|-2-2-2-2--------------------------------|

G|--------------------------------|
D|--------------------------------|
A|----------1-1-1-1--0-0-0-0--2~--|
E|-2-2-2-2------------------------|

Chorus
G|-----------------------------------------|
D|-----------------2-4-4-44-2-4-4-4--------| x3
A|-0-0-00-2-4-4-44------------------4-2-0--|
E|-----------------------------------------|

G|------------------------------------------|
D|-----------------2-4-4-44-2-4-4-22222222--|
A|-0-0-00-2-4-4-44--------------------------|
E|------------------------------------------|

Verse

Chorus
G|-----------------------------------------|
D|-----------------2-4-4-44-2-4-4-4--------| x3
A|-0-0-00-2-4-4-44------------------4-2-0--|
E|-----------------------------------------|

(this is just the same as the original chorus I have here but
there's the slide on the last part and it sounds better from
higher on the neck)
G|------------------------------|
D|------------------------------|
A|-----------------7-9-9-99-7\--|
E|-5-5-55-7-9-9-99--------------|

Chorus (to the end)

            
            
Suggest correction
Creating personal tab
Creating personal tab
You can edit any tab online and save it as your Personal.

You can edit, replace or remove any tab part or add personal notes – all changes will be seen only by you.

Personal tabs can be accessed anytime from any device, even offline.
Learn more »
Give kudos to tab author, rate the tab!
1 2 3 4 5
comments
print report bad tab
1 comment total.
0 reply
DynaBassDave 374 Jan 28, 2011 04:41 AM

when repeating the first part of the chorus the third time it should be this

G|-2-2-22-2--------------------------------|
D|-----------------2-4-4-44-2-4-4-4--------|
A|----------4-4-44------------------4-2-0--|
E|-----------------------------------------|

guest
You may want to rate the tab now too:
select rating
Wanna post a correction for this tab? Suggest correction