Oops, an error
Loading. Please wait.

Ballad Of Hugo Chavez tab

version 1
version 1

Whole song

Interactive

by Arkells
3,438 views 3 this week
no commentswrite comment
1 2 3 4 5
1 last vote to show rating
add to favorites
×
Save as Personal and add changes to this tab that will be seen only by you. Learn more ›
×
You can save this tab as Personal to edit and correct it or add notes. All changes will be seen only by you. Learn more »
launch autoscroll
font size
0
reset
how to read this tab
guitar tuner
edit
Autoscroll
slow
fast
+/-
esc
set tempo
stop
Author
----------------------------------------------------------------------------
                         Ballad of Hugo Chavez - Arkells
----------------------------------------------------------------------------
Tabbed by:Soccerguy
Email:colinpowell111@hotmail.com

Tuning:Standard

Intro
Guitar1                 Guitar 2
e|-*5--4--5*-----------------------------------------------|
B|-*5--5--5*---------------*5*-----------------------------|
G|-*6--6--6*-----------------------------------------------|
D|---------------------------------------------------------|
A|---------------------------------------------------------|
E|---------------------------------------------------------|
Guitar 3
e|--5--4--2-------|
B|--5--5--2-------|
G|--6--6--2-------|
D|--7--6--4-------|    Play 2x
A|--7--4--4-------|
E|--5-----2-------|

Verse-this is just the base of the bass line, as there is no guitar during the verse
e|----------------------------------------------------------|
B|----------------------------------------------------------|
G|----------------------------------------------------------|
D|----------------------------------------------------------|
A|---1--0--2------------------------------------------------|
E|-2--------------------------------------------------------|

Chorus is the same as the intro

Play Verse again

Chorus

Solo
e|----------------------------------------------------------------|
B|----------------------------------------------------------------|
G|-*9-----------9*-9br---------*9-11-11-11*-9-11-12-11-12-11-9*---|
D|---11----9-11-------11-9-11*------------------------------------|
A|------11--------------------------------------------------------|
E|----------------------------------------------------------------|
Play chorus/intro under solo

| /  slide up
| \  slide down
| h  hammer-on
| p  pull-off
| ~  vibrato
| +  harmonic
| x  Mute note
| ** Repeat as necessary
=============================================================================

            
            
Suggest correction
Creating personal tab
Creating personal tab
You can edit any tab online and save it as your Personal.

You can edit, replace or remove any tab part or add personal notes – all changes will be seen only by you.

Personal tabs can be accessed anytime from any device, even offline.
Learn more »
Give kudos to tab author, rate the tab!
1 2 3 4 5
comments
print report bad tab
guest
You may want to rate the tab now too:
select rating
Wanna post a correction for this tab? Suggest correction