Oops, an error
Loading. Please wait.

Making Due tab

by Arkells
1,357 views 3 this week
no commentswrite comment
1 2 3 4 5
x 4
add to favorites
×
Save as Personal and add changes to this tab that will be seen only by you. Learn more ›
×
You can save this tab as Personal to edit and correct it or add notes. All changes will be seen only by you. Learn more »
launch autoscroll
font size
0
reset
how to read this tab
guitar tuner
edit
Autoscroll
slow
fast
+/-
esc
set tempo
stop
About this tab version
Lyrics and Chords included. Capo on 3. Was this info helpful? Yes No
Hi everyone! The newest Arkells album "Morning Report" came out on Friday and I can't stop listening to it, 
so huge shoutout to them. 

This song is surprisingly easy to play and has the best "feel-goody" guitar riff. I play this song with the
capo on 3, so that's how I've written the tab. Enjoy!

This is the basic riff for most of the song. Play it through the first part of the verse.


[Intro/Verse]

e|---------------------------------------------------------------------------|
B|---------------------------------------------------------------------------|
G|-------0-------0-----0-------0---------0-----0-----------------------------|
D|----0-------0-----0-----0-0---------0-----0--------------------------------|
A|-2-------3-----------------------------------------------------------------|
E|-------------------------------3-------------------------------------------|

When I heard, no I wasn't surprised
Could've said it was a long time coming
Now you beg for some, compromise
And you're offering nothing


[Verse 2]

e|---------------------------------------------------------------------------|
B|---------------------------------------------------------------------------|
G|---------0--------0-----0---------0---------0-----0------------------------|
D|----------------0-----0-------0-0--------0-----0---------------------------|
A|-----2-------3-------------------------------------------------------------|
E|--0-----------------------------------3------------------------------------|

And by now, you must understand
Making due with what I've been given
Read the past on the palm of my hand
A few chapters, I think that you're missin'


[Chorus]

  Cadd9                                    D         G 
e|--0----------------------0------0--------2---------3----------------------|
B|--1------------------------3------3------3---------3----------------------|
G|--0--------------------------2------2----2---------0----------------------|
D|--0------------------0-------------------0---------0----------------------|
A|--3--------------------------------------0---------2----------------------|
E|--x--------------------------------------x---------3----------------------|
"So I'm wondering...                    Where can we go now?              
And I'm wondering...                    Where can we go now?"   


[Intro/Verse]

e|---------------------------------------------------------------------------|
B|---------------------------------------------------------------------------|
G|-------0-------0-----0-------0---------0-----0-----------------------------|
D|----0-------0-----0-----0-0---------0-----0--------------------------------|
A|-2-------3-----------------------------------------------------------------|
E|-------------------------------3-------------------------------------------|

When I heard no, I wasn't surprised
Shadows long and the pain gets numbin'
Years ago, you left me behind
And left the place gutted


e|---------------------------------------------------------------------------|
B|---------------------------------------------------------------------------|
G|---------0--------0-----0---------0---------0-----0------------------------|
D|----------------0-----0-------0-0--------0-----0---------------------------|
A|-----2-------3-------------------------------------------------------------|
E|--0-----------------------------------3------------------------------------|

And lined up, you stand and command
Streets lined with satellite dishes
I, skin my knees and I cut my hands
Got a pulse but there's a few beats missing


[Chorus]

  Cadd9                                    D         G 
e|--0----------------------0------0--------2---------3----------------------|
B|--1------------------------3------3------3---------3----------------------|
G|--0--------------------------2------2----2---------0----------------------|
D|--0------------------0-------------------0---------0----------------------|
A|--3--------------------------------------0---------2----------------------|
E|--x--------------------------------------x---------3----------------------|
"So I'm wondering...                    Where can we go now?              
And I'm wondering...                    Where can we go now?"   


  Am                         Em
I run from the past but it's gaining on me

          D                        Em            G
I thought we made a deal, you were crossing your fingers!

Cadd9                     D
So I'm wondering

D            G
Where can we go now


[Instrumental]      

e|---------------------------------------------------------------------------|
B|---------------------------------------------------------------------------|
G|-------0-----0-----0-------0---------0-----0-------------------------------|
D|----0-----0-----0-----0-0---------0-----0----------------------------------|
A|-2-----3-------------------------------------------------------------------|
E|-------------------------------3-------------------------------------------|

e|---------------------------------------------------------------------------|
B|---------------------------------------------------------------------------|
G|-------0-----0-----0-------0---------0-----0-------------------------------|
D|----0-----0-----0-----0-0---------0-----0----------------------------------|
A|-2-----3-------------------------------------------------------------------|
E|-------------------------------3-------------------------------------------|


[Bridge]

          D
The rules came from your daddy's daddy

         Am  
They were, grandfathered in

       Em                                                 C
You forgot pretty fast, 'cuz you act like the past didn't happen


          D
And so you, empty out your pockets

        Am
And you said, all the money's been spent

        Em                                                C
Now you don't come around, to this part of town till it's burning

C
Man, what did you expect? You made some promises that need to be kept!


[Verse]

e|---------------------------------------------------------------------------|
B|---------------------------------------------------------------------------|
G|-------0-----0-----0-------0---------0-----0-------------------------------|
D|----0-----0-----0-----0-0---------0-----0----------------------------------|
A|-2-----3-------------------------------------------------------------------|
E|-------------------------------3-------------------------------------------|

Now I feel like I've been here before
I'm sitting on the bus, now I'm lost and alone
I feel the pain, it's a highway away
Another city in flames, in flames, in flames


[Chorus]

  Cadd9                                    D         G 
e|--0----------------------0------0--------2---------3----------------------|
B|--1------------------------3------3------3---------3----------------------|
G|--0--------------------------2------2----2---------0----------------------|
D|--0------------------0-------------------0---------0----------------------|
A|--3--------------------------------------0---------2----------------------|
E|--x--------------------------------------x---------3----------------------|
"So I'm wondering...                    Where can we go now?              
And I'm wondering...                    Where can we go now?"  


  Am                         Em
I run from the past but it's gaining on me

          D                        Em            G
I thought we made a deal, you were crossing your fingers!

Cadd9                     D
So I'm struggling

          D                  G
With this weight that's been passed down


[Outro]

e|---------------------------------------------------------------------------|
B|---------------------------------------------------------------------------|
G|-------0-----0-----0-------0---------0-----0-------------------------------|
D|----0-----0-----0-----0-0---------0-----0----------------------------------|
A|-2-----3-------------------------------------------------------------------|
E|-------------------------------3-------------------------------------------|



************************************

| x  Dead note

************************************

            
            
Suggest correction
Creating personal tab
Creating personal tab
You can edit any tab online and save it as your Personal.

You can edit, replace or remove any tab part or add personal notes – all changes will be seen only by you.

Personal tabs can be accessed anytime from any device, even offline.
Learn more »
comments
print report bad tab
guest
You may want to rate the tab now too:
select rating
Wanna post a correction for this tab? Suggest correction