Oops, an error
Loading. Please wait.

Oh The Boss Is Coming bass

version 3
version 3

Whole song

Interactive

by Arkells
395 views 1 this week
no commentswrite comment
1 2 3 4 5
3 more votes to show rating
add to favorites
×
Save as Personal and add changes to this tab that will be seen only by you. Learn more ›
×
You can save this tab as Personal to edit and correct it or add notes. All changes will be seen only by you. Learn more »
launch autoscroll
font size
0
reset
guitar tuner
edit
Autoscroll
slow
fast
+/-
esc
set tempo
stop
Author
Difficulty
Tuning: Standard
| /  slide up
| \  slide down
| h  hammer-on
| p  pull-off
| ~  vibrato
| +  harmonic
| x  Mute note

So I saw this tab up, but I saw some errors, and some places that lacked
efficiency, so I thought I'd brush it up. It's an awesome song by a very
talented and underexposed band; I thought it deserved this. :)

Big Credit to InflamedAverage who laid the framework for me to write this tab,
and wrote another tab for this song in the first place. I probably would have
never taken the time to learn it, had the tab not been made in the first place.

NOTES: When playing the intro/verse riff that has the 7/9 on the D, I suggest
rooting your third finger on the E string, 7th fret, then jumping to the D
string 7th fret and sliding to the 9, because that will make the decending bit
easier to reach. Also, at the end of the Intro and Pre-Verse, feel free to add
your own pentatonic run, though here it is tabbed out as it is played 

   INTRO
   0.00 - 0.13
G|------------------------------------------------------------------------|
D|------7/9-----------------7/9------------------7/9----------------------|
A|------------------------------------------------------------------------|
E|-7-77-----10-7-5--0567-77-----10-7-5--0567-77------10-7-5-056-----------|

G-----------7--9-7--------------|
D|------7/9--------9-9-7--------|
A|-----------------------9-7----|
E|7-77----------------------7\0-|

   VERSE
   0.13 - 0.40
G|------------------------------------------------------------------------|
D|------------------------------------------------------------------------|
A|------9-7-----------------9-7-------------------9-7---------------------|
E|7-77------10-7-5-0567-77------10-7-5---0567-77------10-7-5---056-7\0----| 
   
G|-------------------------------------------------------------------|
D|-----7/9-----------------7/9------------------7/9------------------|
A|-------------------------------------------------------------------|
E|7-77-----10-7-5--0567-77-----10-7-5--0567-77------10-7-5-056-------|
   
PRE-CHORUS
   0.40 - 0.53
G|-----------------------------| Repeat X3  G|-----------------------|
D|-7h99-7h9--7h99--7h9---------|  Then:     D|-7h99-7h9--7h99--------|
A|---------------------7\0-X-X-|            A|----------------7777777|
E|-----------------------------|            E|-----------------------|

   CHORUS
   0.53 - 1.17
G|-----------------------------------------------------------------------|
D|-------------------------4-5-4-2-----------2-0-2-----------222222------|
A|-----------------5-5-5-5-------------------------2-2-5-2-5-------5-----|
E|-7-7-7-7-7-7-7-7-----------------3-3-3-3-3-----------------------------|

G|---------------------------------------------------|
D|-------------------------4-5-4-2-----------2-0-----|
A|-2-2-2-2-2-2-2-2-5-5-5-5-----------------------2---|
E|---------------------------------3-3-3-3-3-------0-|

   PRE-VERSE
   1.17 - 1.30
G|-----------------------------------------------------------------------|
D|------7/9-----------------7/9-----------------7/9----------------------|
A|-----------------------------------------------------------------------|
E|-7-77-----10-7-5--0567-77-----10-7-5--0567-77-----10-7-5-056-----------|

G---------------------------|
D|------7/9-----------------|
A|-----------7--------------|
E|7-77---------0000000-7\0--|

   VERSE
   1.30 - 1.58
G|------------------------------------------------------------------------|
D|------------------------------------------------------------------------|
A|------9-7-----------------9-7-------------------9-7---------------------|
E|7-77------10-7-5-0567-77------10-7-5---0567-77------10-7-5---056-7\0----|   
   
G|-------------------------------------------------------------------|
D|-----7/9-----------------7/9------------------7/9------------------|
A|-------------------------------------------------------------------|
E|7-77-----10-7-5--0567-77-----10-7-5--0567-77------10-7-5-056-------|

   PRE-CHORUS
   1.58 - 2.10
G|-----------------------------| Repeat X3  G|-----------------------|
D|-7h99-7h9--7h99--7h9---------|  Then:     D|-7h99-7h9--7h99--------|
A|---------------------7\0-X-X-|            A|----------------7777777|
E|-----------------------------|            E|-----------------------|

   CHORUS
   2.10 - 2.34
G|------------------------------------------------------------------------|
D|-------------------------4-5-4-2-----------2-0-2-----------222222-------|
A|-----------------5-5-5-5-------------------------2-2-5-2-5-------5------|
E|-7-7-7-7-7-7-7-7-----------------3-3-3-3-3------------------------------|

G|---------------------------------------------------|
D|-------------------------4-5-4-2-----------2-0-----|
A|-2-2-2-2-2-2-2-2-5-5-5-5-----------------------2---|
E|---------------------------------3-3-3-3-3-------0-|

   BRIDGE
   2.34 - 3.00
G|------4--------4--------4-------------------------|
D|------------------------------------------------- |
A|-2-------2--------2-------------------------------|
E|---------------------------00002222333355557------|

G|--------------------------------------------|
D|---------------4-5--------------------------|
A|-2-------5----------------------------------|
E|---------------------------0000222233335555-|

   PRE-CHORUS
   3.00 - 3.13
G|-----------------------------| Repeat X3  G|-----------------------|
D|-7h99-7h9--7h99--7h9---------|  Then:     D|-7h99-7h9--7h99--------|
A|---------------------7\0-X-X-|            A|----------------7777777|
E|-----------------------------|            E|-----------------------|

   CHORUS
   3.13 - 3.40
G|-----------------------------------------------------------------------|
D|-------------------------4-5-4-2-----------2-0-2-----------222222------|
A|-----------------5-5-5-5-------------------------2-2-5-2-5-------5-----|
E|-7-7-7-7-7-7-7-7-----------------3-3-3-3-3-----------------------------|

G|---------------------------------------------------|
D|-------------------------4-5-4-2-----------2-0-----|
A|-2-2-2-2-2-2-2-2-5-5-5-5-----------------------2---|
E|---------------------------------3-3-3-3-3-------0-|
=============================================================================

            
            
Suggest correction
Creating personal tab
Creating personal tab
You can edit any tab online and save it as your Personal.

You can edit, replace or remove any tab part or add personal notes – all changes will be seen only by you.

Personal tabs can be accessed anytime from any device, even offline.
Learn more »
Give kudos to tab author, rate the tab!
1 2 3 4 5
comments
print report bad tab
guest
You may want to rate the tab now too:
select rating
Wanna post a correction for this tab? Suggest correction