Oops, an error
Loading. Please wait.

A Better Place bass

326 views 1 this week
1 commentread comment
1 2 3 4 5
2 more votes to show rating
add to favorites
×
Save as Personal and add changes to this tab that will be seen only by you. Learn more ›
×
You can save this tab as Personal to edit and correct it or add notes. All changes will be seen only by you. Learn more »
launch autoscroll
font size
0
reset
guitar tuner
edit
Autoscroll
slow
fast
+/-
esc
set tempo
stop
Author
Difficulty
-----------------------------------------------------------------------------
A Better Place – Army of Anyone
-----------------------------------------------------------------------------

Tabbed By : Mike
e-mail: mike.lake@bresnan.net

Tuning: E A D G

Not a hundred percent sure on the first three notes in the beginning, it sounds like a 
stroke but with the distortion its hard to tell. Rob stays in the pocket for the most 
but he plays around with the chorus quite a bit. Have fun, and feedback is most welcome.


GUITAR INTRO

G|--------------------------------------------------------------------------|
D|-------------------------------------------------------------5-6-7\-------|
A|--------------------------------------------------------------------------|
E|--------------------------------------------------------------------------|


VERSE:

G|--------------------------------------------------------------------------|
D|------------7-5~-5-7-5~---------------------------------------------------|
A|-----3--5-7-------------7-5\2/3~-3~--0-3-3~--0-3-2------------------------|
E|-3h5-----------------------------------------------3\1~--1-0-1-1~---1-1---|

G|--------------------------------------------------------------------------|
D|-------------------6---7-6------------------------------------------------|
A|-3-2-1~--1~--/7--7---7-----7\---------------------------------------------|
E|--------------------------------------------------------------------------|
>>>>PLAY TWICE<<<<


BRIDGE:

G|--------------------------------------------------------------------------|
D|--------------6/7-7-7-7-5-----------------6/7-7-7-7-5---5-----------------|
A|--------3-5-7-------------7\--------3-5-7-------------7-------------------|
E|-3h5-5~----------------------3h5-5~---------------------------------------|

G|--------------------------------------------------------------------------|
D|--------------6/7-7-7-7-5-----------------6/7-7-7-7-5---5-----------------|
A|--------3-5-7-------------7\--------3-5-7-------------7-------------------|
E|-3h5-5~----------------------3h5-5~---------------------------------------|

G|--------------------------------------------------------------------------|
D|--------------6/7-7-7-7-5-----------------6/7-7-7-7-5---------------------|
A|--------3-5-7-------------7\--------3-5-7-------------7\------------------|
E|-5~--------------------------3h5-5~---------------------------------------|

G|--------------------------------------------------------------------------|
D|--------------------------------------------------------------------------|
A|--------------1---0---1-3-5~--5-0-5-5~--0-5-0-5-0-------------------------|
E|-3~-3--1/3--3---3---3-----------------------------------------------------|


CHORUS:

G|--------------------------------------------------------------------------|
D|--------------------------------------------------------------------------|
A|-5h7-7-7-7-5--0-2/3-3-3-3-3-3--0-2-0--3h5-5-5-5-5---0~--0-2-0-3-2-0-3-----|
E|--------------------------------------------------3-----------------------|

G|--------------------------------------------------------------------------|
D|--------------------------------------------------------------------------|
A|-5h7-7-7-7-5--0-2/3-3-3-3--0-2-0-3-2--3h5-5-5-5-5---0~--0-2-0-3-2-0-3-----|
E|--------------------------------------------------3-----------------------|

G|--------------------------------------------------------------------------|
D|--------------------------------------------------------------------------|
A|-5h7-7-7-7-5--0-2/3-3-3-3-3-3--0-2-0--3h5-5-5-5-5---0~--0-2-0-3-2-0-3-----|
E|--------------------------------------------------3-----------------------|

G|--------------------------------------------------------------------------|
D|--------------------------------------------------------------------------|
A|-5h7-7-7-7-5--0-2/3-3-3-3--0-2-0-3-2--3h5-5-5-5-5---0~--------------------|
E|--------------------------------------------------3-----------------------|


The last Chorus is extended but is still played the same way.  Again, fool around with 
chorus a bit.  Rob plays in between the notes a lot.

| /  slide up
| \  slide down
| h  hammer-on
| p  pull-off
| ~  vibrato
| +  harmonic
| x  Mute note
============================================================================

            
            
Suggest correction
Creating personal tab
Creating personal tab
You can edit any tab online and save it as your Personal.

You can edit, replace or remove any tab part or add personal notes – all changes will be seen only by you.

Personal tabs can be accessed anytime from any device, even offline.
Learn more »
Give kudos to tab author, rate the tab!
1 2 3 4 5
comments
print report bad tab
1 comment total.
+1 reply
Dinosaur79 10 May 08, 2011 11:28 AM

i'm not that good at catching by ear, but i believe the last line of the bridge should be like this
A|--------------2---0---2-3-5~--5-0-5-5~--0-5-0-5-0-------------------------|
E|-3~-3--1/3--3---3---3-----------------------------------------------------|

anyway, great tab, now i can play this song

guest
You may want to rate the tab now too:
select rating
Wanna post a correction for this tab? Suggest correction