Oops, an error
Loading. Please wait.

Goodbye tab

version 2
version 2

Whole song

Interactive

2,975 views 6 this week
3 commentsread comments
1 2 3 4 5
x 3
add to favorites
×
Save as Personal and add changes to this tab that will be seen only by you. Learn more ›
×
You can save this tab as Personal to edit and correct it or add notes. All changes will be seen only by you. Learn more »
launch autoscroll
font size
0
reset
how to read this tab
guitar tuner
edit
Autoscroll
slow
fast
+/-
esc
set tempo
stop
Author
#----------------------------------PLEASE NOTE--------------------------------#
#This file is the author's own work and represents their interpretation of the#
#song. You may only use this file for private study, scholarship, or research.#
#-----------------------------------------------------------------------------#
#-- File created with Instab - http://www.pconline.com/~smcarey/instab.html --#
#-----------------------------------------------------------------------------#

Author/Artist: Army Of Anyone
Title: Goodbye
Transcribed By: PYRAMID


Strum between 1st and 2nd pickup.


Palm mute top four strings.
Tuning (eb A D G B E)



----|----------------------------------|--|----------|
----|----------------------------------|--|----------|
----|----------------------------------|--|----------|
----|----------------------------------|--|----------|
----|-5-5---5-5---5-5---5-5---5-5---5--|--|-\--------|
----|-6---4-6---4-6---4-6---4-6---4-6--|--|-\--------|
                             

  Intro


                                                 

----|---------------------------------------|
----|---------------------------------------|
----|---------------------------------------|
----|---------------------------------------|
----|---------------------------------------|
----|-1-4-6-/9---6-6/11\10-10-10-10\4-4-4-4-|
      

  Verse 

----|-------------------------------------------|
----|-------------------------------------------|
----|-------------------------------------------|
----|-------------------------------------------|
----|-------------------------------------------|
----|-1-4-6-/9---6-6/11\10-10-10-10/16-16-16-16-|



----|------------------------------------|-------------|--|
----|------------------------------------|-------------|--|
----|------------------------------------|-------------|--|
----|------------------------------------|-------------|4x|
----|------------------------------------|-------------|--|
----|-1-4-6-/9----6-6/11\10-10-10-10-10/-|-16-16-16-16-|--|

                                                                              





----|------------------------------------------------|
----|----------------------2/5--5--5--5--5--5--5--5--|
----|-7/9----9--7--5--2----2/5--5--5--5--5--5--5--5--|
----|-7/9----9--7--5--2----2/5--5--5--5--5--5--5--5--|
----|-5/7----7--5--3--0---------3--3--3--3--3--3--3--|
----|------------------------------------------------|
  

  Prechorus                                                                            


----|------------------------------------------------|
----|----------------------2/7--7--7--7--7--7--7--7--|
----|-7/9----9--7--5--2----2/7--7--7--7--7--7--7--7--|
----|-7/9----9--7--5--2----2/7--7--7--7--7--7--7--7--|
----|-5/7----7--5--3--0---------5--5--5--5--5--5--5--|
----|------------------------------------------------|
                                                     


                         


----|-------------------------------------------------------------------------
----|-------------------------------------------------------------------------
----|---------4---------------4-4---------------4---------------4-4-----------
----|-5---6-----6-----5---6-------6-----5---7-----5-----5---7-------5-----4---
----|-------------7-----------------7---------------7-----------------7-------
----|-------------------------------------------------------------------------
        

  Chorus                                                                      

-----------------------------------------------------------------------|
-----------------------------------------------------------------------|
-----2---------------2-2---------------2---------------2-2---2---2-----|
-5-----4-----4---5-------4-----2---5-----2-2---2---5-------2---2-2-----|
---------5-----------------5-------------------------------------------|
-----------------------------------------------------------------------|
                               


                                    

 
----|--------------------------------------------------------------------------
----|-7b8-7b8-r7--7b8r7b8r7-------15--14-------10h12vv---------11--------------
----|-------------------------12br--------16-14----------7b8r9-----6b7r6--4----
----|--------------------------------------------------------------------------
----|--------------------------------------------------------------------------
----|--------------------------------------------------------------------------


  Solo 

-------------------------------------------------------------------------------|
-------------------------------------------------------------------------------|
-2-3-b4-r3------------------------------------------4-6-6b7r6-6--4-3--3b4r3b5--|
----------5vv---4-5p4-4-6p4-4-5p4-4-7p4-4--9---7-4-----------------------------|
-------------------------------------------------------------------------------|
-------------------------------------------------------------------------------|
   


------------------------------------------------------------------------------|
----------14-17-16b17--17--17--17--r16----------------------------------------|
-11/14-16------------------------------16-16vv-16-18-18b19r18-18vv-16-14--15b-|
------------------------------------------------------------------------------|
------------------------------------------------------------------------------|
------------------------------------------------------------------------------|
       


--------------------------------------|
--------------------------------------|
-16r15b-16vv--6b7r6-4-2vv-4b5r4-2-----|
----------------------------------5---|
--------------------------------------|
--------------------------------------|
            





----|--------------------------------------------------------------------|
----|---------------------14b15r14vv--14b15r14--12--10b11--16b17--17--17-|
----|-14b15r14b15--13-15-------------------------------------------------|
----|--------------------------------------------------------------------|
----|--------------------------------------------------------------------|
----|--------------------------------------------------------------------|
  

  Out Solo 


------------------------------------------------------------------------------|
-17-17-17--r-16--17-14--------------------------------------------------------|
-----------------------15-12----------2b3r2b4--2-4-6b7r6b7r6--2-0-2-2-0-2-0-2-|
-----------------------------14-12p9------------------------------------------|
------------------------------------------------------------------------------|
------------------------------------------------------------------------------|
     


----------------------------------------------------------------------|
--------------------------------------------------9b10r9--------------|
-2-0-2-2-0-2-0-2-0-2-2-0-2--2b3r2-2-4-6vv/7b8r7-----------------------|
----------------------------------------------------------------------|
----------------------------------------------------------------------|
----------------------------------------------------------------------|
  ........................      




            
            
Suggest correction
Creating personal tab
Creating personal tab
You can edit any tab online and save it as your Personal.

You can edit, replace or remove any tab part or add personal notes – all changes will be seen only by you.

Personal tabs can be accessed anytime from any device, even offline.
Learn more »
Give kudos to tab author, rate the tab!
1 2 3 4 5
comments
print report bad tab
3 comments total.
0 reply
Saverain 5,345 Nov 11, 2006 05:12 PM

Sorry guys this is the wrong tuning.

0 reply
Saverain 5,345 Nov 11, 2006 05:18 PM

http://www.geocities.com/tabevolution/goodbye.html

+1 reply
jjhand 18,994 Apr 21, 2009 09:25 AM

The bottom tab in standard tuning is good. Not sure why you put the baritone part too, but its ok as well.

guest
You may want to rate the tab now too:
select rating
Wanna post a correction for this tab? Suggest correction