Oops, an error
Loading. Please wait.

The Face Of My Innocence tab

version 2
version 2

Whole song

Interactive

by Arsis
7,294 views 3 this week
4 commentsread comments
1 2 3 4 5
x 8
add to favorites
×
Save as Personal and add changes to this tab that will be seen only by you. Learn more ›
×
You can save this tab as Personal to edit and correct it or add notes. All changes will be seen only by you. Learn more »
launch autoscroll
font size
0
reset
how to read this tab
guitar tuner
edit
Autoscroll
slow
fast
+/-
esc
set tempo
stop
Tuning: C G C F A D (A.k.a.Drop C)

[Intro]
(Gtr 1, 2)
D|-------------------------------------------------------|
A|-------------------------------------------------------|
F|-------------------------------------------------------|
C|------------t------------------------------------------| 
G|-------6h8-12-8p6-------0-0-0-0-0----------------------|
C|-0h5h7------------7p5---0-0-0-0-0----------------------|
                         . . . . .

[Riff A] (x2)
(Gtr 1)
D|-------------------------------------------------------|
A|-------------------------------------------------------|
F|-------------------------------------------------------|
C|------------t------------------------------------------|
G|-------6h8-12-8p6-------0-0-0-0-0-0-0------------------|
C|-0h5h7------------7p5---0-0-0-0-0-0-0------------------|
                         . . . . . . .

(Gtr 2)
D|--------------------------------------------------------|
A|--------------------------------------------------------|
F|--------------------------------------------------------|
C|-8-8-8-8-7-7-7-7-5-5-5-5--------------------------------|
G|-------------------------0-0-0-0-0-0-0------------------| 
C|-------------------------0-0-0-0-0-0-0------------------|
                          . . . . . . .

(Gtr 1)
D|---------------------------------------------------------|
A|---------------------------------------------------------|
F|------------------------------------t--------------------|
C|------------t------------------6h8-12-8p6----------------|
G|-------6h8-12-8p6-------0h5h7-------------7p5------------|
C|-0h5h7------------7p5------------------------------------|

(Gtr 2)
D|--------------------------------------------------|
A|--------------------------------------------------|
F|--------------------------------------------------|
C|-8-8-8-8-7-7-7-7-5-5-5-5-7-7-7-7-5-5-5-5-3-3-3-3--|
G|--------------------------------------------------|
C|--------------------------------------------------|
  . . . . . . . . . . . . . . . . . . . . . . . .

(Gtr 1)
D|-------------------------------------------------------|
A|-------------------------------------------------------|
F|-------------------------------------------------------|
C|------------t------------------------------------------|
G|-------6h8-12-8p6-------0-0-0-0-0----------------------|
C|-0h5h7------------7p5---0-0-0-0-0----------------------|
                          . . . . .

(Gtr 2)
D|--------------------------------------------------------|
A|--------------------------------------------------------|
F|--------------------------------------------------------|
C|-8-8-8-8-7-7-7-7-5-5-5-5--------------------------------|
G|-------------------------0-0-0-0-0----------------------|
C|-------------------------0-0-0-0-0----------------------|
                           . . . . .

[Riff C] (x2)
(Gtr 1)
D|-------------------------------------------------------|
A|-------------------------------------------------------|
F|-------------------------------------------------------|
C|------------3------------3-----------------------------|
G|------0--3--1--3--0-0-3--1-3--0------------------------|
C|-13--0--3-----3--0-0-3----3--0-------------------------|

(Gtr 2)
D|-------------------------------------------------------|
A|---------------------(Repeat Throughout)---------------|
F|-------------------------------------------------------|
C|-0-7-0-8-0-5-0-7-0-5-0-7-0-8-0-7-0-5-0-7---------------|
G|-------------------------------------------------------|
C|-------------------------------------------------------|
   . . . . . . . . . . . . . . . . . . . .

[Riff A]
(Gtr 1)
D|-------------------------------------------------------|
A|-------------------------------------------------------|
F|-------------------------------------------------------|
C|------------t------------------------------------------|
G|-------6h8-12-8p6-------0-0-0-0-0-0-0------------------|
C|-0h5h7------------7p5---0-0-0-0-0-0-0------------------|
                         . . . . . . .

(Gtr 2)
D|--------------------------------------------------------|
A|--------------------------------------------------------|
F|--------------------------------------------------------|
C|-8-8-8-8-7-7-7-7-5-5-5-5--------------------------------|
G|-------------------------0-0-0-0-0-0-0------------------| 
C|-------------------------0-0-0-0-0-0-0------------------|
                          . . . . . . .

(Gtr 1)
D|---------------------------------------------------------|
A|---------------------------------------------------------|
F|------------------------------------t--------------------|
C|------------t------------------6h8-12-8p6----------------|
G|-------6h8-12-8p6-------0h5h7-------------7p5------------|
C|-0h5h7------------7p5------------------------------------|

(Gtr 2)
D|--------------------------------------------------|
A|--------------------------------------------------|
F|--------------------------------------------------|
C|-8-8-8-8-7-7-7-7-5-5-5-5-7-7-7-7-5-5-5-5-3-3-3-3--|
G|--------------------------------------------------|
C|--------------------------------------------------|
  . . . . . . . . . . . . . . . . . . . . . . . .

(Gtr 1)
D|-------------------------------------------------------|
A|-------------------------------------------------------|
F|-------------------------------------------------------|
C|------------t------------------------------------------|
G|-------6h8-12-8p6-------0-0-0-0-0----------------------|
C|-0h5h7------------7p5---0-0-0-0-0----------------------|
                          . . . . .

(Gtr 2)
D|--------------------------------------------------------|
A|--------------------------------------------------------|
F|--------------------------------------------------------|
C|-8-8-8-8-7-7-7-7-5-5-5-5--------------------------------|
G|-------------------------0-0-0-0-0----------------------|
C|-------------------------0-0-0-0-0----------------------|
                           . . . . .

[Riff D]
(Gtr 1, 2)
D|--------------------------------------------------------------|
A|--------------------------------------------------------------|
F|--------------------------------------------------------------|
C|---------------------8-7-7---------------------------8-7-7----|
G|-0-1-------3h6p3-----6-5-5-----------------3h6p3-----6-5-5----|
C|-0-1-3ph-0-------0-0--------0-1-4-0-2-5-0-0-------0-0---------|
           .       . .        . . . . . . . .       . .

(Gtr 1, 2)
D|--------------------------------------------------------------|
A|--------------------------------------------------------------|
F|--------------------------------------------------------------|
C|---------------------8-7-7---------------------------7-5-5----|
G|-0-1-------3h6p3-----6-5-5-----------------3h6p3-----5-3-3----|
C|-0-1-3ph-0-------0-0--------0-1-4-0-2-5-0-0-------0-0---------|
           .       . .        . . . . . . . .       . .

[Riff C]
(Gtr 1)
D|-------------------------------------------------------|
A|-------------------------------------------------------|
F|-------------------------------------------------------|
C|------------3------------3-----------------------------|
G|------0--3--1--3--0-0-3--1-3--0------------------------|
C|-13--0--3-----3--0-0-3----3--0-------------------------|

(Gtr 2)
D|-------------------------------------------------------|
A|---------------------(Repeat Throughout)---------------|
F|-------------------------------------------------------|
C|-0-7-0-8-0-5-0-7-0-5-0-7-0-8-0-7-0-5-0-7---------------|
G|-------------------------------------------------------|
C|-------------------------------------------------------|
   . . . . . . . . . . . . . . . . . . . .

[Riff A] (x2)
(Gtr 1)
D|-------------------------------------------------------|
A|-------------------------------------------------------|
F|-------------------------------------------------------|
C|------------t------------------------------------------|
G|-------6h8-12-8p6-------0-0-0-0-0-0-0------------------|
C|-0h5h7------------7p5---0-0-0-0-0-0-0------------------|
                         . . . . . . .

(Gtr 2)
D|--------------------------------------------------------|
A|--------------------------------------------------------|
F|--------------------------------------------------------|
C|-8-8-8-8-7-7-7-7-5-5-5-5--------------------------------|
G|-------------------------0-0-0-0-0-0-0------------------| 
C|-------------------------0-0-0-0-0-0-0------------------|
                          . . . . . . .

(Gtr 1)
D|---------------------------------------------------------|
A|---------------------------------------------------------|
F|------------------------------------t--------------------|
C|------------t------------------6h8-12-8p6----------------|
G|-------6h8-12-8p6-------0h5h7-------------7p5------------|
C|-0h5h7------------7p5------------------------------------|

(Gtr 2)
D|--------------------------------------------------|
A|--------------------------------------------------|
F|--------------------------------------------------|
C|-8-8-8-8-7-7-7-7-5-5-5-5-7-7-7-7-5-5-5-5-3-3-3-3--|
G|--------------------------------------------------|
C|--------------------------------------------------|
  . . . . . . . . . . . . . . . . . . . . . . . .

(Gtr 1)
D|-------------------------------------------------------|
A|-------------------------------------------------------|
F|-------------------------------------------------------|
C|------------t------------------------------------------|
G|-------6h8-12-8p6-------0-0-0-0-0----------------------|
C|-0h5h7------------7p5---0-0-0-0-0----------------------|
                          . . . . .

(Gtr 2)
D|--------------------------------------------------------|
A|--------------------------------------------------------|
F|--------------------------------------------------------|
C|-8-8-8-8-7-7-7-7-5-5-5-5--------------------------------|
G|-------------------------0-0-0-0-0----------------------|
C|-------------------------0-0-0-0-0----------------------|
                           . . . . .

[Riff E]
(Gtr 1)
D|-----------------------------------------------------------|
A|---------------------------------------------------3-------|
F|-----------------------------------------------------3-----|
C|----------8-10-8--------7-8-7-------7-8-7--------1-----5---|
G|-0-0----5--------5----3-------3---0-------0----1-----------|
C|-0-0--5-------------3-----------0------------1-------------|
   . .  . . . .  . .  . . . . . . . . . . . .  . . . .   .

(Gtr 2)
D|-----------------------------------------------------------|
A|-----------------------------------------------------------|
F|-------12--15--14--10--12--/14--/12------------------------|
C|--------------------------/----/---------------------------|
G|-0-0---10--13--12--8---10/--12/--10------------------------|
C|-0-0-------------------------------------------------------|
   . .

[Riff F]
(Gtr 1)
D|---------------------------------------------------------------|
A|-8-8-----------------------------------------------------------|
F|-----7-7-10-10-7-7-8-8-5-5-7-7-3-3-5-5-3-3-2-2-3-3-2-2-2-2-2-2-|
C|---------------------------------------------------------------|
G|---------------------------------------------------------------|
C|---------------------------------------------------------------|
   . . . . . . . . . . . . . . . . . . . . . . . . . . . . . . .

(Gtr 2)
D|-----------------------------------------------------------|
A|---------------------------------------------------3-------|
F|-----------------------------------------------------3-----|
C|----------8-10-8--------7-8-7-------7-8-7--------1-----5---|
G|-0-0----5--------5----3-------3---0-------0----1-----------|
C|-0-0--5-------------3-----------0------------1-------------|
   . .  . . . .  . .  . . . . . . . . . . . .  . . . .   .

(Gtr 1)
D|----------------------------------------------------------------|
A|-8-8-----------------------------------------------3------------|
F|-----7-7-10-10-7-7-8-8-5-5-7-7-3-3-5-5-3-3-2-2-3-3---3----------|
C|-------------------------------------------------------5--------|
G|----------------------------------------------------------------|
C|----------------------------------------------------------------|
   . . . . . . . . . . . . . . . . . . . . . . . . .

(Gtr 2)
D|----------------------------------------------------------------|
A|---------------------------------------------------3------------|
F|-----------------------------------------------------3----------|
C|----------8-10-8--------7-8-7-------7-8-7--------1-----5--------|
G|-0-0----5--------5----3-------3---0-------0----1----------------|
C|-0-0--5-------------3-----------0------------1------------------|
   . .  . . . .  . .  . . . . . . . . . . . .  . . . .

[Riff G]
(Gtr 1, 2)
D|---------------------------------------------------------------------------|
A|---------------------------------------------------------------------------|
F|----------------------------------------------------------------0h3h7------|
C|---------------------8-7-7-------------0h3h7-------------------------------|
G|-0-1-------3h6p3-----6-5-5-------0h3h7-------0h3h7-------0h3h7------0h3h7--|
C|-0-1-3ph-0-------0-0--------0h5h7-------------------0h5h7------------------|
           .       . .

(Gtr 1, 2)
D|----------------------------15p11------------------6h10p6-|
A|---------------------------------13---------------8-------|
F|-----------------------------------12-----------7---------|
C|---------------------8-7-7-----------13------8------------|
G|-0-1-------3h6p3-----6-5-5--------------15-10-------------|
C|-0-1-3ph-0-------0-0--------------------------------------|
           .       . .

(Gtr 1, 2)
D|---------------------------------------------------------------------------|
A|---------------------------------------------------------------------------|
F|----------------------------------------------------------------0h3h7------|
C|---------------------8-7-7-------------0h3h7-------------------------------|
G|-0-1-------3h6p3-----6-5-5-------0h3h7-------0h3h7-------0h3h7------0h3h7--|
C|-0-1-3ph-0-------0-0--------0h5h7-------------------0h5h7------------------|
           .       . .

(Gtr 1, 2)
D|-------------------------------------------------------------------|
A|-------------------------------------------------------------------|
F|-------------------------------------------------------------------|
C|---------------------8-7-7---------------------------7-5-5---------|
G|-0-1-------3h6p3-----6-5-5-----------------3h6p3-----5-3-3---------|
C|-0-1-3ph-0-------0-0--------0-1-4-0-2-5-0-0-------0-0--------------|
           .       . .        . . . . . . . .       . .

[Riff H]
(Gtr 1)
D|---------------------------------------------|
A|---------------------------------------------|
F|---------------------------------------------|
C|-----------8p7p5h7p5---5---------------------|
G|-0-1-----------------8--8p5------------------|
C|-0-1-3ph-0------------------7----------------|
           .

(Gtr 2)
D|---------------------------------------------|
A|---------------------------------------------|
F|---------------------------------------------|
C|---------------------------------------------|
G|-0-1-------------3h5h6p5p3-------------------|
C|-0-1-3ph-0-3h5h6----------6p5p3--------------|
          .
(x3)
(Gtr 1, 2)
D|-------------------------|
A|-------------------------|
F|-------------------------|
C|-----------5-7-5---------|
G|-0-1-------3-5-3---------|
C|-0-1-3ph-0---------------|
           .

(Gtr 1)
D|---------------------------------------------|
A|---------------------------------------------|
F|---------------------------------------------|
C|-----------8p7p5h7p5---5---------------------|
G|-0-1-----------------8--8p5------------------|
C|-0-1-3ph-0------------------7----------------|
           .

(Gtr 2)
D|---------------------------------------------|
A|---------------------------------------------|
F|---------------------------------------------|
C|---------------------------------------------|
G|-0-1-------------3h5h6p5p3-------------------|
C|-0-1-3ph-0-3h5h6----------6p5p3--------------|
           .

(Gtr 1)
D|---------------------------------------------|
A|---------------------------------------------|
F|---------------------------------------------|
C|---------------------------------------------|
G|-0-1-------3h6p3h6p3h6p3---------------------|
C|-0-1-3ph-0-----------------------------------|
           .

(Gtr 2)
D|---------------------------------------------|
A|---------------------------------------------|
F|---------------------------------------------|
C|-----------1h4p1h4p1h4p1---------------------|
G|-0-1-----------------------------------------|
C|-0-1-3ph-0-----------------------------------|
           .

(Gtr 1, 2)
D|-------------------------|
A|-------------------------|
F|-------------------------|
C|-----------5-7-5---------|
G|-0-1-------3-5-3---------|
C|-0-1-3ph-0---------------|
           .

[Riff I]
(Gtr 1)
D|---------------------------------------------|
A|---------------------------------------------|
F|---------------------------------------------|
C|-0--------(0)--------------------------------|
G|-0--------(0)-----------------------------0--|
C|-0--------(0)-----------------------------0--|
                                            .

(Gtr 2)
D|---------------------------------------------|
A|---------------------------------------------|
F|---------------------------------------------|
C|-7-------7-------7------------------8--7-----|
G|-5-------5-------5---8p5---8p5-----8--7------|
C|--0-0-0-0-0-0-0-0-0-0---0-0---0-0-8--7-------|
    . . . . . . . . . .   . .   . . ......

(Gtr 1)
D|-----------------------------------------------|
A|-----------------------------------------------|
F|-----------------------------------------------|
C|-----------------------------------------------|
G|--------------------------------------7--8--7--|
C|----------------------------------5-5--5--5--5-|
                                    . . .. .. ..

(Gtr 2)
D|-----------------------------------------------|
A|-----------------------------------------------|
F|-----------------------------------------------|
C|-7-------7-------7-----------------------------|
G|-5-------5-------5---8p5---8p5--------7--8--7--|
C|--0-0-0-0-0-0-0-0-0-0---0-0---0-0-5-5--5--5--5-|
    . . . . . . . . . .   . .   . . . . .. .. ..

(Gtr 1)
D|-------------------------------------------------|
A|-------------------------------------------------|
F|-------------------------------------------------|
C|--------------------------------------------8--7-|
G|-8p5--------8p5--------8p5---8p5---8p5-----8--7--|
C|----0-0-0-0-----0-0-0-0---0-0---0-0---0-0-8--7---|
      . . . .     . . . .   . .   . .   . . ......

(Gtr 2)
D|---------------------------------------------|
A|---------------------------------------------|
F|---------------------------------------------|
C|-7-------7-------7------------------8--7-----|
G|-5-------5-------5---8p5---8p5-----8--7------|
C|--0-0-0-0-0-0-0-0-0-0---0-0---0-0-8--7-------|
    . . . . . . . . . .   . .   . . ......

(Gtr 1)
D|-----------------------------------------------------|
A|-----------------------------------------------------|
F|-----------------------------------------------------|
C|-----------------------------------------------------|
G|-8p5--------8p5--------8p5---8p5---8p5-------7-8-7---|
C|----0-0-0-0-----0-0-0-0---0-0---0-0---0-0-5-5-5-5-5--|
      . . . .     . . . .   . .   . .   . . . .......

(Gtr 2)
D|-------------------------------------------------|
A|-------------------------------------------------|
F|-------------------------------------------------|
C|-7-------7-------7-------------------------------|
G|-5-------5-------5---8p5---8p5-------7-8-7-------|
C|--0-0-0-0-0-0-0-0-0-0---0-0---0-0-5-5-5-5-5------|
    . . . . . . . . . .   . .   . . . .......

[Guitar Solo 1]
D|----------------------------------------------------|
A|----------------------------------------------------|
F|-7b(1/2)-7ph-5h6h7h8p7p6p5h6h7h8p7p6p5h6h7h8p7p6p5--|
C|--------------------------------------------------7-|
G|----------------------------------------------------|
C|----------------------------------------------------|

D|-------------------------------------------------------|
A|-8h9h10h11p10p9p8h9h10h11p10p9p8h9h10h11p10p9p8--13b-13|
F|-------------------------------------------------------|
C|-------------------------------------------------------|
G|-------------------------------------------------------|
C|-------------------------------------------------------|

                              t                     t
D|-------9h13p9----------9h13-18-13p9----------9h13-18-13p9-------|
A|-----11------11------11------------11------11------------11-----|
F|---10----------10--10----------------10--10----------------10---|
C|-11--------------11--------------------11--------------------11-|
G|----------------------------------------------------------------|
C|----------------------------------------------------------------|

D|---------------------------------------------|
A|----------6-8-10-10b1210-8-6-8-10-13-(13)----|
F|-10-12-10------------------------------------|
C|---------------------------------------------|
G|---------------------------------------------|
C|---------------------------------------------|

(Background Guitar on Solo 1)
D|--------------------------------------------------|
A|--------------------------------------------------|
F|--------------------------------------------------|
C|-7-------7-------7----------------------8-7-7----|
G|-5-------5-------5--0-1-------3h6p3-----6-5-5----|
C|--0-0-0-0-0-0-0-0---0-1-3ph-0-------0-0-----------|
    . . . . . . . .   . .     .       . .

D|----------------------------------------------------|
A|----------------------------------------------------|
F|----------------------------------------------------|
C|-7-------7-------7---------------------------8-7-7-|
G|-5-------5-------5-----------------3h6p3-----6-5-5-|
C|--0-0-0-0-0-0-0-0--0-1-4-0-2-5-0-0-------0-0--------|
   . . . . . . . .  . . . . . . . .       . .

[Riff C] (x2)
(Gtr 1)
D|-------------------------------------------------------|
A|-------------------------------------------------------|
F|-------------------------------------------------------|
C|------------3------------3-----------------------------|
G|------0--3--1--3--0-0-3--1-3--0------------------------|
C|-13--0--3-----3--0-0-3----3--0-------------------------|

(Gtr 2)
D|-------------------------------------------------------|
A|---------------------(Repeat Throughout)---------------|
F|-------------------------------------------------------|
C|-0-7-0-8-0-5-0-7-0-5-0-7-0-8-0-7-0-5-0-7---------------|
G|-------------------------------------------------------|
C|-------------------------------------------------------|
   . . . . . . . . . . . . . . . . . . . .

 "Breakdown Riff"
(Gtr 1)
D|-----------------------------------------|
A|-----------------------------------------|
F|-----------------------------------------|
C|---------3----------3--------3-------3---|
G|---0--3--1--3--0-3--1-3--0-3-1-3-0-3-1-3-|
C|---0--3-----3--0-3----3--0-3---3-0-3---3-|
     .  .  .  .  . . .  . .  .

(Gtr 2)
D|------------------------------------------|
A|--------------(Repeat Throughout)---------|
F|------------------------------------------|
C|-0-7-0-8-0-5-0-7-0-5-0-7-0-8-0-7-0-5-0-7--|
G|------------------------------------------|
C|------------------------------------------|
   . . . . . . . . . . . . . . . . . . . .

[Riff C]
(Gtr 1)
D|-------------------------------------------------------|
A|-------------------------------------------------------|
F|-------------------------------------------------------|
C|------------3------------3-----------------------------|
G|------0--3--1--3--0-0-3--1-3--0------------------------|
C|-13--0--3-----3--0-0-3----3--0-------------------------|

(Gtr 2)
D|-------------------------------------------------------|
A|---------------------(Repeat Throughout)---------------|
F|-------------------------------------------------------|
C|-0-7-0-8-0-5-0-7-0-5-0-7-0-8-0-7-0-5-0-7---------------|
G|-------------------------------------------------------|
C|-------------------------------------------------------|
   . . . . . . . . . . . . . . . . . . . .

[Riff A]
(Gtr 1)
D|-------------------------------------------------------|
A|-------------------------------------------------------|
F|-------------------------------------------------------|
C|------------t------------------------------------------|
G|-------6h8-12-8p6-------0-0-0-0-0-0-0------------------|
C|-0h5h7------------7p5---0-0-0-0-0-0-0------------------|
                         . . . . . . .

(Gtr 2)
D|--------------------------------------------------------|
A|--------------------------------------------------------|
F|--------------------------------------------------------|
C|-8-8-8-8-7-7-7-7-5-5-5-5--------------------------------|
G|-------------------------0-0-0-0-0-0-0------------------| 
C|-------------------------0-0-0-0-0-0-0------------------|
                          . . . . . . .

(Gtr 1)
D|---------------------------------------------------------|
A|---------------------------------------------------------|
F|------------------------------------t--------------------|
C|------------t------------------6h8-12-8p6----------------|
G|-------6h8-12-8p6-------0h5h7-------------7p5------------|
C|-0h5h7------------7p5------------------------------------|

(Gtr 2)
D|--------------------------------------------------|
A|--------------------------------------------------|
F|--------------------------------------------------|
C|-8-8-8-8-7-7-7-7-5-5-5-5-7-7-7-7-5-5-5-5-3-3-3-3--|
G|--------------------------------------------------|
C|--------------------------------------------------|
  . . . . . . . . . . . . . . . . . . . . . . . .

(Gtr 1)
D|-------------------------------------------------------|
A|-------------------------------------------------------|
F|-------------------------------------------------------|
C|------------t------------------------------------------|
G|-------6h8-12-8p6-------0-0-0-0-0----------------------|
C|-0h5h7------------7p5---0-0-0-0-0----------------------|
                          . . . . .

(Gtr 2)
D|--------------------------------------------------------|
A|--------------------------------------------------------|
F|--------------------------------------------------------|
C|-8-8-8-8-7-7-7-7-5-5-5-5--------------------------------|
G|-------------------------0-0-0-0-0----------------------|
C|-------------------------0-0-0-0-0----------------------|
                           . . . . .

[Riff E]
(Gtr 1)
D|-----------------------------------------------------------|
A|---------------------------------------------------3-------|
F|-----------------------------------------------------3-----|
C|----------8-10-8--------7-8-7-------7-8-7--------1-----5---|
G|-0-0----5--------5----3-------3---0-------0----1-----------|
C|-0-0--5-------------3-----------0------------1-------------|
   . .  . . . .  . .  . . . . . . . . . . . .  . . . .   .

(Gtr 2)
D|-----------------------------------------------------------|
A|-----------------------------------------------------------|
F|-------12--15--14--10--12--/14--/12------------------------|
C|--------------------------/----/---------------------------|
G|-0-0---10--13--12--8---10/--12/--10------------------------|
C|-0-0-------------------------------------------------------|
   . .

[Riff F]
(Gtr 1)
D|---------------------------------------------------------------|
A|-8-8-----------------------------------------------------------|
F|-----7-7-10-10-7-7-8-8-5-5-7-7-3-3-5-5-3-3-2-2-3-3-2-2-2-2-2-2-|
C|---------------------------------------------------------------|
G|---------------------------------------------------------------|
C|---------------------------------------------------------------|
   . . . . . . . . . . . . . . . . . . . . . . . . . . . . . . .

(Gtr 2)
D|-----------------------------------------------------------|
A|---------------------------------------------------3-------|
F|-----------------------------------------------------3-----|
C|----------8-10-8--------7-8-7-------7-8-7--------1-----5---|
G|-0-0----5--------5----3-------3---0-------0----1-----------|
C|-0-0--5-------------3-----------0------------1-------------|
   . .  . . . .  . .  . . . . . . . . . . . .  . . . .   .

(Gtr 1)
D|----------------------------------------------------------------|
A|-8-8-----------------------------------------------3------------|
F|-----7-7-10-10-7-7-8-8-5-5-7-7-3-3-5-5-3-3-2-2-3-3---3----------|
C|-------------------------------------------------------5--------|
G|----------------------------------------------------------------|
C|----------------------------------------------------------------|
   . . . . . . . . . . . . . . . . . . . . . . . . .

(Gtr 2)
D|----------------------------------------------------------------|
A|---------------------------------------------------3------------|
F|-----------------------------------------------------3----------|
C|----------8-10-8--------7-8-7-------7-8-7--------1-----5--------|
G|-0-0----5--------5----3-------3---0-------0----1----------------|
C|-0-0--5-------------3-----------0------------1------------------|
   . .  . . . .  . .  . . . . . . . . . . . .  . . . .


[Guitar Solo 2]
D|--------------------------------------------------------------|
A|-------------------------------12--15-13-10-12-12b14-10-12-10-|
F|----7---10-8--8p7h8/10p8h10-12---12---------------------------|
C|-/5---8-------------------------------------------------------|
G|--------------------------------------------------------------|
C|--------------------------------------------------------------|

D|---------9h13-18-17-15-17--18-17-15----15------------------|
A|-------11---------------------------18----16-18-15-16-15---|
F|-----10--------------------------------------------------17|
C|---11------------------------------------------------------|
G|-13--------------------------------------------------------|
C|-----------------------------------------------------------|

D|-----------------------------------------|
A|-----------------------------------------|
F|-14-15-17-15--15-17-17b(1/2)-17-15-------|
C|-----------------------------------------|
G|-----------------------------------------|
C|-----------------------------------------|

(Background Guitar on Solo 2)
D|--------------------------------------------------|
A|--------------------------------------------------|
F|--------------------------------------------------|
C|-----8-10-8---8-------3-8-7---7-------7-8-7---7---|
G|---5--------5---5---3-------3---3---0-------0---0-|
C|-5----------------3---------------0---------------|

D|------------------------------|
A|---------3--------------------|
F|-----------3------------------|
C|-----1-5-----5----------------|
G|---1--------------------------|
C|-1----------------------------|

[Ending Riff]
(Gtr 1, 2)
D|---------------------------------------------------|
A|---------------------------------------------------|
F|------------------------------------0h3h7----------|
C|------------0h3h7----------------------------------|
G|------0h3h7-------0h3h7-------0h3h7------0h3h7-0-0-|
C|0h5h7-------------------0h5h7------------------0-0-|


************************************

| t    Tapping
| h    Hammer-on
| p    Pull-off
| .    Staccato
| /    Slide up
| (n)  Ghost note
| b    Bend

************************************

            
            
Suggest correction
Creating personal tab
Creating personal tab
You can edit any tab online and save it as your Personal.

You can edit, replace or remove any tab part or add personal notes – all changes will be seen only by you.

Personal tabs can be accessed anytime from any device, even offline.
Learn more »
comments
print report bad tab
4 comments total. Showing first comments.
+3 reply
rapscallion 113 Dec 11, 2007 06:44 AM

the chugging part in the intro isn't just straight 0-0-0-0-0, people never seem to take rhythm into account in guitar
tabs, it's more like 0-0---0-0---0---

0 reply
metallica72487 103 Jan 16, 2008 08:30 PM, edited on March 27 2014, 05:30 am

u know

0 reply
metallica72487 103 Jan 16, 2008 08:30 PM

your right

guest
You may want to rate the tab now too:
select rating
Wanna post a correction for this tab? Suggest correction