Oops, an error
Loading. Please wait.

Robando De Los Muertos intro tab

1,805 views 1 this week
3 commentsread comments
1 2 3 4 5
x 4
add to favorites
×
Save as Personal and add changes to this tab that will be seen only by you. Learn more ›
×
You can save this tab as Personal to edit and correct it or add notes. All changes will be seen only by you. Learn more »
launch autoscroll
font size
0
reset
how to read this tab
guitar tuner
edit
Autoscroll
slow
fast
+/-
esc
set tempo
stop
Author
Arsonists Get All The Girls - Robando de los Muertos

this is all i have so far, but its a start

beginning (during keyboard intro)

D--------------------------|
A--------------------------|
F--------------------------|
C-00-0000------------------|
G-00-0000------------------|
C-00-0000------------------|
pm.. ....
thats basically it, the strumming is probably not accurate but you can figure it out

after keyboard part

D----------------------|
A----------------------|
F--11-9-7-6-4-2-4------|
C---9-7-5-4-2-0-2------|
G-0--------------------|
C-0--------------------|
pm.

after they do that a few times, i think they begin muting the note immediately after 
it.

plz rate!

            
            
Suggest correction
Creating personal tab
Creating personal tab
You can edit any tab online and save it as your Personal.

You can edit, replace or remove any tab part or add personal notes – all changes will be seen only by you.

Personal tabs can be accessed anytime from any device, even offline.
Learn more »
comments
print report bad tab
3 comments total.
0 reply
nirvanarocks47 10 Feb 02, 2009 04:01 PM

Amzing!!!!

Thanx dude, ive been waiting for someone to tab this forever!
hurry up and get the rest!

0 reply
dylann 135 Feb 17, 2009 01:32 AM

get the rest!
good so far aha

0 reply
heinous412 35 Aug 14, 2011 04:54 PM

idk i think this just sounds alot better

D----------------------|
A----------------------|
F----------------------|
C--12-10-8-7-5-4-5-----|
G-0--------------------|
C-0--------------------|
%Pr

guest
You may want to rate the tab now too:
select rating
Wanna post a correction for this tab? Suggest correction