Oops, an error
Loading. Please wait.

The Madness tab

1,153 views 18 this week
1 commentread comment
1 2 3 4 5
x 4
add to favorites
×
Save as Personal and add changes to this tab that will be seen only by you. Learn more ›
×
You can save this tab as Personal to edit and correct it or add notes. All changes will be seen only by you. Learn more »
launch autoscroll
font size
0
reset
how to read this tab
guitar tuner
edit
Autoscroll
slow
fast
+/-
esc
set tempo
stop
About this tab version
Full song guitar tab. Notes: The Verse shows Bumblefoot playing Harp harmonics (youtube) with delay pedal echoes but all the notes are there so they can be played simpler without effects. Notes in the solo are relatively accurate but parts are played fast so it's possible to have missed something. Please rate or comment. Was this info helpful? Yes No
Artist/Song:  Art of Anarchy - The Madness 
Album:        unreleased
Tuning:       Drop D, 2 guitars
Tabbed by:    jjhand



[Intro]
   Guitar 1
e|-----------------------|
B|-----------------------|
G|----------10-9----9-10-|  play 4x
D|-12----12--------------| 
A|-----------------------|
D|-----------------------|



[Intro Pt 2]
   Guitar 1 continues intro riff one octave up using whammy/octave pedal? 

   Guitar 2
e|------------------------|------------------------|
B|------------------------|------------------------|
G|------------------------|------------------------|
D|------------------------|------------------------|
A|-8--8--7--8----8--7--8--|----8--7--8--10-8--7----|
D|-8--8--8--8----8--8--8--|----8--8--8--8--8--8----|

e|------------------------|------------------------|
B|------------------------|------------------------|
G|------------------------|------------------------|
D|-0--0--0--0----0--0--0--|----0--0--0--0--0--0----|
A|-0--0--0--0----0--0--0--|----0--0--0--0--0--0----|
E|-0--0--0--0----0--0--0--|----0--0--0--0--0--0----|

e|------------------------|------------------------|
B|------------------------|------------------------|
G|------------------------|------------------------|
D|------------------------|------------------------|
A|-8--8--7--8----8--7--8--|----8--7--8--10-8--7----|
D|-8--8--8--8----8--8--8--|----8--8--8--8--8--8----|

e|------------------------|------------------------|
B|------------------------|------------------------|
G|------------------------|------------------------|
D|-0--0--0--0----0--0--0--|----10\------3p0--3h5---|
A|-0--0--0--0----0--0--0--|-----8\------3p0--3h5---|
D|-0--0--0--0----0--0--0--|-------------3p0--3h5---|



[Verse Riff 1]
   Guitar 1 (explained above, played 2x)
e|------------------------|-------------------------|
B|------------------------|------------13-13-13-13--|
G|------------14-14-14-14-|-12-12-12-12-------------|
D|-12-12-12-12------------|-------------------------|
A|------------------------|-------------------------|
D|------------------------|-------------------------|

e|------------------------|------------17-17-17-17--|
B|------------15-15-15-15-|-17-17-17-17-------------|
G|-14-14-14-14------------|-------------------------| 
D|------------------------|-------------------------|
A|------------------------|-------------------------|
D|------------------------|-------------------------|



[Verse Riff 2]
   Guitar 1
e|------------------------|-------------------------|
B|------------------------|------------13-13-13-13--|
G|------------14-14-14-14-|-12-12-12-12-------------|
D|-12-12-12-12------------|-------------------------|
A|------------------------|-------------------------|
D|------------------------|-------------------------|
 |
 | Guitar 2 
e|------------------------|-------------------------|
B|------------------------|-------------------------|
G|------------------------|-------------------------|
D|------------------------|-------------5--5--5--5--|
A|-5--5--5--5--8--8--8--8-|-7--7--7--7--------------|
D|------------------------|-------------------------|


   Guitar 1 
e|------------------------|------------17-17-17-17--|
B|------------15-15-15-15-|-17-17-17-17-------------|
G|-14-14-14-14------------|-------------------------| 
D|------------------------|-------------------------|
A|------------------------|-------------------------|
D|------------------------|-------------------------|
 |
 | Guitar 2 
e|------------------------|-------------------------|
B|------------------------|-------------------------|
G|------------------------|-------------------------|
D|------------------------|--------------5/7--7--7--|
A|-5--5--5--5--8--8--8--8-|-7--7--7--7--------------|
D|------------------------|-------------------------|

   Guitar 1
e|------------------------|-------------------------|
B|------------------------|------------13-13-13-13--|
G|------------14-14-14-14-|-12-12-12-12-------------|
D|-12-12-12-12------------|-------------------------|
A|------------------------|-------------------------|
D|------------------------|-------------------------|
 |
 | Guitar 2 
e|------------------------|-------------------------|
B|------------------------|-------------------------|
G|------------------------|-------------------------|
D|------------------------|-------------5--5--5--5--|
A|-5--5--5--5--8--8--8--8-|-7--7--7--7--------------|
D|------------------------|-------------------------|

  verse ending (2 guitars):
e|-------------------------|-------------------------|
B|-------------------------|-------------------------|
G|-------------------------|-------------------------|
D|-7--7--7--7--7--7--7--7--|-8--8--8--8--10-10-10----|
A|-7--7--7--7--7--7--7--7--|-8--8--8--8--10-10-10----|
E|-7--7--7--7--7--7--7--7--|-8--8--8--8--10-10-10----|
   PM *  *  *  *  *  *  *    *  *  *  *




[Chorus]
   both parts play this 3x

   Guitar 1
e|------------------------|------------------------|
B|------------------------|------------------------|
G|----10-9-10----10-9-10--|----10-9-10-12-10-9-10--|
D|-12---------12----------|-12---------------------|
A|------------------------|------------------------|
D|------------------------|------------------------|
 |
 | Guitar 2
e|------------------------|------------------------|
B|------------------------|------------------------|
G|------------------------|------------------------|
D|------------------------|------------------------|
A|-8--8--7--8----8--7--8--|----8--7--8--10-8--7----|
D|-8--8--8--8----8--8--8--|----8--8--8--8--8--8----|



   Guitar 1
e|------------------------|------------------------|
B|------------------------|------------------------|
G|----10-9-10----10-9-10--|----10-9-10-12-10-9-10--|
D|-12---------12----------|-12---------------------|
A|------------------------|------------------------|
D|------------------------|------------------------|
 |
 | Guitar 2
e|------------------------|------------------------|
B|------------------------|------------------------|
G|------------------------|------------------------|
D|-0--0--0--0----0--0--0--|----0--0--0--0--0--0----|
A|-0--0--0--0----0--0--0--|----0--0--0--0--0--0----|
D|-0--0--0--0----0--0--0--|----0--0--0--0--0--0----|



[Chorus Ending]
   Guitar 1
e|------------------------|------------------------|
B|------------------------|------------------------|
G|----10-9-10----10-9-10--|----10-9-10-12-10-9-10--|
D|-12---------12----------|-12---------------------|
A|------------------------|------------------------|
D|------------------------|------------------------|
 |
 | Guitar 2
e|------------------------|------------------------|
B|------------------------|------------------------|
G|------------------------|------------------------|
D|------------------------|------------------------|
A|-8--8--7--8----8--7--8--|----8--7--8--10-8--7----|
D|-8--8--8--8----8--8--8--|----8--8--8--8--8--8----|


   both guitars in unison:
e|-------------------------|-------------------------|
B|-------------------------|-------------------------|
G|-------------------------|-------------------------|
D|-7--7--7--7--7--7--7--7--|-8--8--8--8--10-10-10----|
A|-7--7--7--7--7--7--7--7--|-8--8--8--8--10-10-10----|
E|-7--7--7--7--7--7--7--7--|-8--8--8--8--10-10-10----|
   PM *  *  *  *  *  *  *    *  *  *  *




[Verse 2 Part 1]

   Guitar 1 (same as before, played 2x)
e|------------------------|-------------------------|
B|------------------------|------------13-13-13-13--|
G|------------14-14-14-14-|-12-12-12-12-------------|
D|-12-12-12-12------------|-------------------------|
A|------------------------|-------------------------|
D|------------------------|-------------------------|

e|------------------------|------------17-17-17-17--|
B|------------15-15-15-15-|-17-17-17-17-------------|
G|-14-14-14-14------------|-------------------------| 
D|------------------------|-------------------------|
A|------------------------|-------------------------|
D|------------------------|-------------------------|



[Verse 2 Riff 2]
   Guitar 1 (same)
e|------------------------|-------------------------|
B|------------------------|------------13-13-13-13--|
G|------------14-14-14-14-|-12-12-12-12-------------|
D|-12-12-12-12------------|-------------------------|
A|------------------------|-------------------------|
D|------------------------|-------------------------|
 |
 | Guitar 2 
e|------------------------|-------------------------|
B|------------------------|-------------------------|
G|------------------------|-------------------------|
D|------------------------|-------------5--5--5--5--|
A|-5--5--5--5--8--8--8--8-|-7--7--7--7--------------|
D|------------------------|-------------------------|


   Guitar 1 
e|------------------------|------------17-17-17-17--|
B|------------15-15-15-15-|-17-17-17-17-------------|
G|-14-14-14-14------------|-------------------------| 
D|------------------------|-------------------------|
A|------------------------|-------------------------|
D|------------------------|-------------------------|
 |
 | Guitar 2 
e|------------------------|-------------------------|
B|------------------------|-------------------------|
G|------------------------|-------------------------|
D|------------------------|--------------5/7--7--7--|
A|-5--5--5--5--8--8--8--8-|-7--7--7--7--------------|
D|------------------------|-------------------------|


   Guitar 1
e|------------------------|-------------------------|
B|------------------------|------------13-13-13-13--|
G|------------14-14-14-14-|-12-12-12-12-------------|
D|-12-12-12-12------------|-------------------------|
A|------------------------|-------------------------|
D|------------------------|-------------------------|
 |
 | Guitar 2 
e|------------------------|-------------------------|
B|------------------------|-------------------------|
G|------------------------|-------------------------|
D|------------------------|-------------5--5--5--5--|
A|-5--5--5--5--8--8--8--8-|-7--7--7--7--------------|
D|------------------------|-------------------------|


  verse ending (2 guitars):
e|-------------------------|-------------------------|
B|-------------------------|-------------------------|
G|-------------------------|-------------------------|
D|-7--7--7--7--7--7--7--7--|-8--8--8--8--10-10-10----|
A|-7--7--7--7--7--7--7--7--|-8--8--8--8--10-10-10----|
E|-7--7--7--7--7--7--7--7--|-8--8--8--8--10-10-10----|
   PM *  *  *  *  *  *  *    *  *  *  *




[Chorus 2]
   both parts play this 3x

   Guitar 1
e|------------------------|------------------------|
B|------------------------|------------------------|
G|----10-9-10----10-9-10--|----10-9-10-12-10-9-10--|
D|-12---------12----------|-12---------------------|
A|------------------------|------------------------|
D|------------------------|------------------------|
 |
 | Guitar 2
e|------------------------|------------------------|
B|------------------------|------------------------|
G|------------------------|------------------------|
D|------------------------|------------------------|
A|-8--8--7--8----8--7--8--|----8--7--8--10-8--7----|
D|-8--8--8--8----8--8--8--|----8--8--8--8--8--8----|



   Guitar 1
e|------------------------|------------------------|
B|------------------------|------------------------|
G|----10-9-10----10-9-10--|----10-9-10-12-10-9-10--|
D|-12---------12----------|-12---------------------|
A|------------------------|------------------------|
D|------------------------|------------------------|
 |
 | Guitar 2
e|------------------------|------------------------|
B|------------------------|------------------------|
G|------------------------|------------------------|
D|-0--0--0--0----0--0--0--|----0--0--0--0--0--0----|
A|-0--0--0--0----0--0--0--|----0--0--0--0--0--0----|
D|-0--0--0--0----0--0--0--|----0--0--0--0--0--0----|



[Chorus 2 Ending]
   Guitar 1
e|------------------------|------------------------|
B|------------------------|------------------------|
G|----10-9-10----10-9-10--|----10-9-10-12-10-9-10--|
D|-12---------12----------|-12---------------------|
A|------------------------|------------------------|
D|------------------------|------------------------|
 |
 | Guitar 2
e|------------------------|------------------------|
B|------------------------|------------------------|
G|------------------------|------------------------|
D|------------------------|------------------------|
A|-8--8--7--8----8--7--8--|----8--7--8--10-8--7----|
D|-8--8--8--8----8--8--8--|----8--8--8--8--8--8----|


   both guitars in unison:
e|-------------------------|-------------------------|
B|-------------------------|-------------------------|
G|-------------------------|-------------------------|
D|-7--7--7--7--7--7--7--7--|-8--8--8--8--10-10-10----|
A|-7--7--7--7--7--7--7--7--|-8--8--8--8--10-10-10----|
E|-7--7--7--7--7--7--7--7--|-8--8--8--8--10-10-10----|
   PM *  *  *  *  *  *  *    *  *  *  *




[Short Solo]

e|--------------------------|-------------------------|
B|-/15-15-15-15-15-15-15-15-|-15-15-15-15-15-15-15\---|
G|--------------------------|-------------------------| play 2x
D|--------------------------|-------------------------|
A|--------------------------|-------------------------|
D|--------------------------|-------------------------|

e|--------------------------|-------------------------|
B|--------------------------|-------------------------|
G|-/14-14-14-14-14-14-14-14-|-14-14-14-14-14-14-14\---|
D|--------------------------|-------------------------|
A|--------------------------|-------------------------|
D|--------------------------|-------------------------|

e|--------------------------|----------------20h22p20---------------|
B|-/18-18-18-18-18-18-18-18-|----------20h22--------22p20p17--------|
G|--------------------------|-----17h19---------------------19p17---|
D|--------------------------|17h19-------------------------------19-|
A|--------------------------|---------------------------------------|
D|--------------------------|---------------------------------------|

e|--------------------------|-------------------------|
B|-/15-15-15-15-15-15-15-15-|-15-15-15-15-18-18-18\---|
G|--------------------------|-------------------------|
D|--------------------------|-------------------------|
A|--------------------------|-------------------------|
D|--------------------------|-------------------------|

e|--------------------17-15-|----17-15----17-15----17\|
B|-/13-13-13-13-13-13-------|-13-------13-------13----|
G|--------------------------|-------------------------|
D|--------------------------|-------------------------|
A|--------------------------|-------------------------|
D|--------------------------|-------------------------|

e|--------------------------------------------------|
B|-/15-15-15-15-15-15-15-15-15-15-15-15-15-15-15\---|
G|--------------------------------------------------|
D|--------------------------------------------------|
A|--------------------------------------------------|
D|--------------------------------------------------|

e|-17h18p17p15-------------------------------------------------------|
B|------------15-13--------------------------------------------------|
G|-----------------15-14-12--14h15p14p12\10------9h10p9\7-5h7p5---5V-|
D|-----------------------------------------12p10-----------------5---|
A|-------------------------------------------------------------------|
D|-------------------------------------------------------------------|




[Solo Rhythm Chords]

  Strum as needed, in eighths:
e|--------------|-------------|------------|------------|
B|--------------|-------------|------------|------------|
G|--------------|-------------|------------|------------|
D|-12-----------|-12----------|-10---------|-10---------|
A|-12-----------|-12----------|-10---------|-10---------|
D|-12-----------|-12----------|-10---------|-10---------|

e|--------------|-------------|------------|------------|
B|--------------|-------------|------------|------------|
G|--------------|-------------|------------|------------|  all 8 bars played 2x
D|-7------------|-7-----------|-8----------|-10---------|
A|-5------------|-5-----------|-8----------|-10---------|
D|-5------------|-5-----------|-8----------|-10---------|



[Final Chorus]

   Guitar 2 only:
e|------------------------|------------------------|
B|------------------------|------------------------|
G|------------------------|------------------------|
D|------------------------|------------------------|
A|-8--8--7--8----8--7--8--|----8--7--8--10-8--7----|
D|-8--8--8--8----8--8--8--|----8--8--8--8--8--8----|


e|------------------------|------------------------|
B|------------------------|------------------------|
G|------------------------|------------------------|
D|-0--0--0--0----0--0--0--|----0--0--0--0--0--0----|
A|-0--0--0--0----0--0--0--|----0--0--0--0--0--0----|
D|-0--0--0--0----0--0--0--|----0--0--0--0--0--0----|


   Guitar 1 rejoins (part is played 2x):

   Guitar 1
e|------------------------|------------------------|
B|------------------------|------------------------|
G|----10-9-10----10-9-10--|----10-9-10-12-10-9-10--|
D|-12---------12----------|-12---------------------|
A|------------------------|------------------------|
D|------------------------|------------------------|
 |
 | Guitar 2
e|------------------------|------------------------|
B|------------------------|------------------------|
G|------------------------|------------------------|
D|------------------------|------------------------|
A|-8--8--7--8----8--7--8--|----8--7--8--10-8--7----|
D|-8--8--8--8----8--8--8--|----8--8--8--8--8--8----|



   Guitar 1
e|------------------------|------------------------|
B|------------------------|------------------------|
G|----10-9-10----10-9-10--|----10-9-10-12-10-9-10--|
D|-12---------12----------|-12---------------------|
A|------------------------|------------------------|
D|------------------------|------------------------|
 |
 | Guitar 2
e|------------------------|------------------------|
B|------------------------|------------------------|
G|------------------------|------------------------|
D|-0--0--0--0----0--0--0--|----0--0--0--0--0--0----|
A|-0--0--0--0----0--0--0--|----0--0--0--0--0--0----|
D|-0--0--0--0----0--0--0--|----0--0--0--0--0--0----|



[Ending]
   Guitar 1
e|------------------------|------------------------|
B|------------------------|------------------------|
G|----10-9-10----10-9-10--|----10-9-10-12-10-9-10--|
D|-12---------12----------|-12---------------------|
A|------------------------|------------------------|
D|------------------------|------------------------|
 |
 | Guitar 2
e|------------------------|------------------------|
B|------------------------|------------------------|
G|------------------------|------------------------|
D|------------------------|------------------------|
A|-8--8--7--8----8--7--8--|----8--7--8--10-8--7----|
D|-8--8--8--8----8--8--8--|----8--8--8--8--8--8----|


   both guitars in unison:                             () = Guitar 1
e|-------------------------|-------------------------|----------------|
B|-------------------------|-------------------------|----------------|
G|-------------------------|-------------------------|-(7~)-----------|
D|-7--7--7--7--7--7--7--7--|-8--8--8--8--10-10-10----|--0-------------|
A|-7--7--7--7--7--7--7--7--|-8--8--8--8--10-10-10----|--0-------------|
E|-7--7--7--7--7--7--7--7--|-8--8--8--8--10-10-10----|--0-------------|
   PM *  *  *  *  *  *  *    *  *  *  *

Beginning of intro is repeated and fades out 


*********************************************************
Key:
| /   slide up
| \   slide down
| h   hammer-on
| p   pull-off
| ~   vibrato
| +   harmonic
| x   Mute note
| PM  palm mute (also noted with * over several notes)
| V   Tremelo bar dive (lower note's pitch)
*********************************************************

            
            
Suggest correction
Creating personal tab
Creating personal tab
You can edit any tab online and save it as your Personal.

You can edit, replace or remove any tab part or add personal notes – all changes will be seen only by you.

Personal tabs can be accessed anytime from any device, even offline.
Learn more »
comments
print report bad tab
1 comment total.
+1 reply
JimBonJovi 851 Feb 01, 2017 10:33 AM

Wicked tab as usual. One very minor thing though, I think the rhythm guitars in the solo had this variation:

e|--------------|-------------|------------|------------|
B|--------------|-------------|------------|------------|
G|--------------|-------------|------------|------------|
D|-12-----------|-12----------|-10---------|-10---------|
A|-12-----------|-12----------|-10---------|-10---------|
D|-12-----------|-12----------|-10---------|-10---------|

e|--------------|-------------|------------|------------|
B|--------------|-------------|------------|------------|
G|--------------|-------------|------------|------------|
D|-7------------|-7-----------|-8----------|-10---------|
A|-5------------|-5-----------|-8----------|-10---------|
D|-5------------|-5-----------|-8----------|-10---------|

guest
You may want to rate the tab now too:
select rating
Wanna post a correction for this tab? Suggest correction