Oops, an error
Loading. Please wait.

Prelude - Nightmare bass

103 views 1 this week
no commentswrite comment
1 2 3 4 5
x 3
add to favorites
×
Save as Personal and add changes to this tab that will be seen only by you. Learn more ›
×
You can save this tab as Personal to edit and correct it or add notes. All changes will be seen only by you. Learn more »
launch autoscroll
font size
0
reset
guitar tuner
edit
Autoscroll
slow
fast
+/-
esc
set tempo
stop
Author
Difficulty
--------------------------------------------------------------------------
                                          Artist - Arthur Brown
                                         ***********************
                                       Song - Prelude - Nightmare    
                                      ****************************
                               Album - The Crazy World Of Arthur Brown (1968)  
                              ************************************************
                                          Tabbed By - Ayreon77
                                         **********************
--------------------------------------------------------------------------
Tuning = Standard


00:39
G|-----|-----------|-----------|-----------|
D|-5-5-|---3-4-5-5-|---3-4-5-5-|---3-4-5-5-|
A|-----|-5---------|-5---------|-5---------|
E|-----|-----------|-----------|-----------|


----------------------
00:46
VERSE 1
********
      Dynamic explosions in my brain  Shattered me to drops of rain              
G|-----------|-----------|-----------|------------|
D|---3-4-5-5-|---3-4-5-5-|---3-4-5-5-|-3-3--5-3-5-|
A|-5---------|-5---------|-5---------|------------|
E|-----------|-----------|-----------|------------|

      Falling from a yellow sky   Orange faces to an opened eye
G|-----------|-----------|-----------|------------|
D|---3-4-5-5-|---3-4-5-5-|---3-4-5-5-|-3-3--5-3-5-|
A|-5---------|-5---------|-5---------|------------|
E|-----------|-----------|-----------|------------|


----------------------
00:59
CHORUS
*******
           Stop    me,       hold me back as I jerk
G|---------------|---------|-----|-----|-------|-------|-----|
D|---3-4-5-5-5-5-|---------|-5-5-|-7-7-|-8-7-5-|-8-7-5-|-8-7-|
A|-5-------------|-3-3-3-3-|-----|-----|-------|-------|-----|
E|---------------|---------|-----|-----|-------|-------|-----|

     Stop      me,      voices from all those at work
G|-----------|---------|-------|--------|--------|--------|
D|---------4-|-5-5-5-5-|-7---7-|-6--6-6-|-7--7-7-|-6--6-6-|
A|-3-3-3-3---|---------|-------|--------|--------|--------|
E|-----------|---------|-------|--------|--------|--------|

  Lips don't want to criticize, you know
G|--------|--------|--------|--------|
D|--------|--------|--------|--------|
A|-6--6-6-|-6--6-6-|-5--5-5-|-5--5-5-|
E|--------|--------|--------|--------|

  Eyes can never tell you lies It's the words
G|--------|----------|------------------|
D|--------|----------|------------------|
A|-6--6-6-|-6-6--6-6-|-5--5-5-5-5-5-5-5-|
E|--------|----------|------------------|


----------------------
01:31
ORGAN
******
G|-----|-----------|-----------|-----------|-----------|-----------|-----------|-----------|
D|-5-5-|---3-4-5-5-|---3-4-5-5-|---3-4-5-5-|---3-4-5-5-|---3-4-5-5-|---3-4-5-5-|---3-4-5-5-|
A|-----|-5---------|-5---------|-5---------|-5---------|-5---------|-5---------|-5---------|
E|-----|-----------|-----------|-----------|-----------|-----------|-----------|-----------|


----------------------
01:43
    Take that fire burning my brain Let me love it higher
G|-----------|-----------|-----------|-----------|
D|---3-4-5-5-|---3-4-5-5-|---3-4-5-5-|---3-4-5-5-|
A|-5---------|-5---------|-5---------|-5---------|
E|-----------|-----------|-----------|-----------|


----------------------
01:50
ORGAN
******
G|-----------|
D|---3-4-5-5-|
A|-5---------|
E|-----------|X12


----------------------
02:10
TRUMPET
********
G|--------------|----------|----------|--------|
D|---3-4-5--5-5-|---5--5-5-|---5--5-5-|-5--5-5-|
A|-5------------|-5--------|-5--------|--------|
E|--------------|----------|----------|--------|


----------------------
02:17
VERSE 2
********
   Why is it so cold out here, so cold  Let me in
G|----------|--------|--------|--------|--------|----------|----------|----------|
D|---5--5-5-|-5--5-5-|-5--5-5-|-5--5-5-|-5--5-5-|---5--5-5-|---5--5-5-|---5--5-5-|
A|-5--------|--------|--------|--------|--------|-5--------|-5--------|-5--------|
E|----------|--------|--------|--------|--------|----------|----------|----------|
  
   The price of your entry is sin         Go away then return Know which face you have to turn
G|---------|---------|---------|---------|--------|----------|--------|--------|
D|-5-5-5-5-|-5-5-5-5-|-5-5-5-5-|-5-5-5-5-|-5--5-5-|---5--5-5-|-5--5-5-|-5--5-5-|
A|---------|---------|---------|---------|--------|-5--------|--------|--------|
E|---------|---------|---------|---------|--------|----------|--------|--------|

  Eyes are glaring, voice's flaring  Whaaaaaaaaa
G|--------|------------------|-----------|
D|-5--5-5-|---5--5---3-4-5-5-|---3-4-5-5-|
A|--------|-5------5---------|-5---------|
E|--------|------------------|-----------|

  Caught up deep inside in my brain  Take my love and turn it to pain 
G|-----------|----------------------|-----------|-----------|
D|---3-4-5-5-|---3-4-5-5------------|---3-4-5-5-|---3-4-5-5-|
A|-5---------|-5--------------------|-5---------|-5---------|
E|-----------|----------------------|-----------|-----------|

  Take my heart and tear it apart  Gonna burn in hard desire
G|-----------|--------------------|-----------|-----------|
D|---3-4-5-5-|---3-4-5-5----------|---3-4-5-5-|---3-4-5-5-|
A|-5---------|-5------------------|-5---------|-5---------|
E|-----------|--------------------|-----------|-----------|


G|-----------|-----------|-----------|-----------|
D|---3-4-5-5-|---3-4-5-5-|---3-4-5-5-|---3-4-5-5-|
A|-5---------|-5---------|-5---------|-5---------|
E|-----------|-----------|-----------|-----------|


----------------------
03:10
OUTRO
******
G|---------------|---------|---------|---------|
D|---3-4-5-5-5-5-|-8-8-8-8-|---------|---------|
A|-5-------------|---------|-3-3-3-3-|-6-6-6-6-|
E|---------------|---------|---------|---------|


G|-----------------|-----------------|-------------------------|----------------------|---|
D|-5---5---5---5---|-8---8---8---8---|-10----10----10----10----|-13----13----13----13-|---|
A|---5---5---5---5-|---8---8---8---8-|----10----10----10----10-|----13----13----13----|---|
E|-----------------|-----------------|-------------------------|----------------------|-5-|



ENJOY......

            
            
Suggest correction
Creating personal tab
Creating personal tab
You can edit any tab online and save it as your Personal.

You can edit, replace or remove any tab part or add personal notes – all changes will be seen only by you.

Personal tabs can be accessed anytime from any device, even offline.
Learn more »
Give kudos to tab author, rate the tab!
1 2 3 4 5
comments
print report bad tab
guest
You may want to rate the tab now too:
select rating
Wanna post a correction for this tab? Suggest correction