Oops, an error
Loading. Please wait.
We have an official In Dying Days tab made by UG professional guitarists. Check out the tab »
×
16,188 views 3 this week
5 commentsread comments
1 2 3 4 5
1 last vote to show rating
add to favorites
×
Save as Personal and add changes to this tab that will be seen only by you. Learn more ›
×
You can save this tab as Personal to edit and correct it or add notes. All changes will be seen only by you. Learn more »
launch autoscroll
font size
0
reset
guitar tuner
edit
Autoscroll
slow
fast
+/-
esc
set tempo
stop
F||--------------------------------------------------------------------------------|
C||--------------------------------------------------------------------------------|
G||-5-------5-------8---7---10---8---7h8p7---------7h8---5h7p5---------5h7---4h5p4-|
C||-----000-----000---0---0----0---0--------8--888-----8--------7--777-----7-------|

F||-------------------------------------------------------------------------------------|
C||-------------------------------------------------------------------------------------|
G||-8-------8-------12h13---13h15---12h13p12p10-----1010101212121313131212121010108887*-|
C||-----000-----000-------0-------0--------------888------------------------------------|


F||------------------------------------------------------------------------------------------|
C||------------------------------------------------------------------------------------------|
G||-8-------8-------12---10---13---12---10h12p10---------10h12---8h10p8---------8h10---7h8p7-|
C||-----000-----000----0----0----0----0----------8--888--------8---------7--777------7-------|

F||-------------------------------------------------------------------------------------|
C||-------------------------------------------------------------------------------------|
G||-8-------8-------12h13---13h15---12h13p12p10-----1010101212121313131212121010108887*-|
C||-----000-----000-------0-------0--------------888------------------------------------|

F||----------------------------------------------------|
C||----------------------------------------------------|
G||----------------------------------------------------|
C||-0----(0)----(0)----(0)----(0)----(0)----(0)----12\-|



F||------------------------------------------------------------------|
C||------------------------------------------------------------------|
G||-5-----5---5---8---7---10---8p7------5---5---5h7------4---4---4h5-|
C||---0-0---0---0---0---0----0------8-8---8---8------7-7---7---7-----|

F||---------------------------------------------------------------|
C||---------------------------------------------------------------|
G||-5-----5---5---8h12-8h12-7h10-7h10-----7778881010108887775554*-|
C||---0-0---0---0----------------------888------------------------|

F||-----------------------------------------------------------------------|
C||-----------------------------------------------------------------------|
G||-8-----8---8---12---10---13---12p10------8---8---8h10------7---7---7h8-|
C||---0-0---0---0----0----0----0--------8-8---8---8-------7-7---7---7-----|

F||------------------------------------------------------------------------------|
C||------------------------------------------------------------------------------|
G||-8-----8---8---13h15-13h15-10h13-10h13----1010101212121313131212121010108887*-|
C||---0-0---0---0-------------------------888------------------------------------|



F||----------------------------------------------------------------|
C||----------------------------------------------------------------|
G||-----5---4h5---5h7---7h8---8h10------8---7h8---8h10---8p7---5p4-|
C||-0-0---0-----0-----0-----0-------0-0---0-----0------0-----0-----|

F||----------------------------------------------------------------|
C||----------------------------------------------------------------|
G||-----5---4h5---5h7---7h8---8h10------8---7h8---8h10---8p7---4*--|
C||-0-0---0-----0-----0-----0-------0-0---0-----0------0-----0-----|

F||----------------------------------------------------------------|
C||----------------------------------------------------------------|
G||-----5---4h5---5h7---7h8---8h10------8---7h8---8h10---8p7---5p4-|
C||-0-0---0-----0-----0-----0-------0-0---0-----0------0-----0-----|



F||------------------------------------------------------------------|
C||------------------------------------------------------------------|
G||-5-----5---5---8---7---10---8p7------5---5---5h7------4---4---4h5-|
C||---0-0---0---0---0---0----0------8-8---8---8------7-7---7---7-----|

F||---------------------------------------------------------------|
C||---------------------------------------------------------------|
G||-5-----5---5---8h12-8h12-7h10-7h10-----7778881010108887775554*-|
C||---0-0---0---0----------------------888------------------------|

F||-----------------------------------------------------------------------|
C||-----------------------------------------------------------------------|
G||-8-----8---8---12---10---13---12p10------8---8---8h10------7---7---7h8-|
C||---0-0---0---0----0----0----0--------8-8---8---8-------7-7---7---7-----|



F||------------------------------------------------------------------------------|
C||------------------------------------------------------------------------------|
G||-8-----8---8---13h15-13h15-10h13-10h13----1010101212121313131212121010108887--|
C||---0-0---0---0-------------------------888------------------------------------|

F||-----------------------------------------------------------------------------------|
C||----------------------------------------------------------131313888-8h10p8-6-------|
G||---888101010121212---888101010121212---101010121212131313--------------------------|
C||-0-----------------7-----------------8---------------------------------------------|

F||----------------------------------|
C||----------------------------------|
G||----------------------------------|
C||-0000--0000-0000--0000--000-0-20\-|

F||-------------------------------------------------------------------------|
C||-------------------------------------------------------------------------|
G||-------------------------------------------------------------------------|
C||-0000--0000-0000-0-0000--0000-0000-0-0000--0000-0000-0-0000--0000-0000-0-|

F||-------------------------------------------------------------------------------------------------------|
C||-------------------------------------------------------------------------------------------------------|
G||-------------------------------------------------------------------------------------------------------|
C||-0000--0000-0000-0-0000--0000-0000-0-0000--0000-0000-0-0000--0000-000-0-0--------------------------11\-|

F||----------------------------------------------------------------------------|
C||----------------------------------------------------------------------------|
G||----------------------------------------------------------------------------|
C||-0-0-0-0-0----0-0-0-0-0--0-0-0-0-0--0--0-0-0-0-0----0-0-0-0-0--0-0-0-0-0--0-|

F||-----------------------------------------------------------------------------|
C||-----------------------------------------------------------------------------|
G||-----------------------------------------------------------------------------|
C||-0-0-0-0-0----0-0-0-0-0--0-0-0-0-0--0--0-0-0-0-0----0-0-0-0-0--0-0-0-0-0--8\-|

F||----------------------------------------------------------------------------|
C||----------------------------------------------------------------------------|
G||----------------------------------------------------------------------------|
C||-1-1-1-1-1----1-1-1-1-1--1-1-1-1-1--1--1-1-1-1-1----1-1-1-1-1--1-1-1-1-1--1-|

F||----------------------------------------------7h10p7h10-6h9p6h9-|
C||----------------------------------------------------------------|
G||---------------------------5-7----------------------------------|
C||-0-0-0-0---0-0-0-0-0-0-5-7------0-0-0-0-0-0-0-------------------|x4


F||----------------------------------------7h10p7h10-6h9p6h9-|
C||----------------------------------------------------------|
G||---555444555777555777888777888101010888-------------------|
C||-0--------------------------------------------------------|

F||----------------------------------7h10p7h10-6h9p6h9-|
C||----------------------------------------------------|
G||---5554445557775557778887775554*--------------------|
C||-0--------------------------------------------------|


F||------------------------------------------------------------------|
C||------------------------------------------------------------------|
G||-5-----5---5---8---7---10---8p7------5---5---5h7------4---4---4h5-|
C||---0-0---0---0---0---0----0------8-8---8---8------7-7---7---7-----|

F||---------------------------------------------------------------|
C||---------------------------------------------------------------|
G||-5-----5---5---8h12-8h12-7h10-7h10-----7778881010108887775554--|
C||---0-0---0---0----------------------888------------------------|

F||-----------------------------------------------------------------------|
C||-----------------------------------------------------------------------|
G||-8-----8---8---12---10---13---12p10------8---8---8h10------7---7---7h8-|
C||---0-0---0---0----0----0----0--------8-8---8---8-------7-7---7---7-----|

F||------------------------------------------------------------------------------|
C||------------------------------------------------------------------------------|
G||-8-----8---8---13h15-13h15-10h13-10h13----101010121212131313121212-10--8---7--|
C||---0-0---0---0-------------------------888------------------------------------|


F||---------------------------------------------------------------------------------------------|
C||---------------------------------------------------------------------------------------------|
G||-8-------8--------8/12--10--12--12/13--12--10h12p0---------10h12---8h10---------8h10---7h8p7-|
C||-----000-----000------------------------------------8--888---------------7--777--------------|

F||-------------------------------------------------------------------------------------------|
C||-------------------------------------------------------------------------------------------|
G||-8-------8-------12h13---12h15---12h13p12p10----13/15--13--12h13p12----12/13--12--10h12p10-|
C||-----000-----000------------------------------8----------------------7---------------------|

F||---------------------------------------------------------------------------------------------|
C||---------------------------------------------------------------------------------------------|
G||-8-------8--------8/12--10--12--12/13--12--10h12p0---------10h12---8h10---------8h10---7h8p7-|
C||-----000-----000------------------------------------8--888---------------7--777--------------|

F||-------------------------------------------------------------------------------------------|
C||-------------------------------------------------------------------------------------------|
G||-8-------8-------12h13---12h15---12h13p12p10----13/15--13--12h13p12----12/13--12--10h12p10-|
C||-----000-----000------------------------------8----------------------7---------------------|

F||------------------------------------------------|
C||------------------------------------------------|
G||------------------------------------------------|
C||-0----(0)----(0)----(0)----(0)----(0)----(0)----|

            
            
Suggest correction
Creating personal tab
Creating personal tab
You can edit any tab online and save it as your Personal.

You can edit, replace or remove any tab part or add personal notes – all changes will be seen only by you.

Personal tabs can be accessed anytime from any device, even offline.
Learn more »
Give kudos to tab author, rate the tab!
1 2 3 4 5
comments
print report bad tab
5 comments total. Showing first comments.
0 reply
deaththrashcore 436 Mar 11, 2007 05:06 AM

Nice but I get the feeling you copied tis from someone else? The bass plays Sal's part and does not play the 3 step up harmony that Ernie occaisonaly switches too. Plus you have a * where pinch harmonics are for guitar but the bass doesn't use them.

0 reply
deaththrashcore 436 Mar 13, 2007 11:34 AM

Yeah you definetly copied my tab that I posted. I know it says unregistered but it was mine and it was also wrong. I submitted the correct tab but it has yet to be posted.

0 reply
Shimxxp 10 Aug 30, 2007 06:20 PM

this tab blows anyways.

guest
You may want to rate the tab now too:
select rating
Wanna post a correction for this tab? Suggest correction