Oops, an error
Loading. Please wait.
We have an official In Dying Days tab made by UG professional guitarists. Check out the tab »
×
28,527 views 12 this week
5 commentsread comments
1 2 3 4 5
x 9
add to favorites
×
Save as Personal and add changes to this tab that will be seen only by you. Learn more ›
×
You can save this tab as Personal to edit and correct it or add notes. All changes will be seen only by you. Learn more »
launch autoscroll
font size
0
reset
guitar tuner
edit
Autoscroll
slow
fast
+/-
esc
set tempo
stop
Song: In Dying Days
Artist: As Blood Runs Black
Album: Allegiance

Intro:
F||-----------------------------------------------------------------------|
C||-----------------------------------------------------------------------|
G||-----------------------------------------------------------------------|
C||-0-------------(0)--------------8-------------------7---------------8\-|

F||---------------------------------------------------------------------|
C||---------------------------------------------------------------------|
G||-5v------5v------8h10---10h12---8h10p8p7-----7778881010108887775554b-|
C||-----000-----000------0-------0-----------888------------------------|

F||---------------------------------------------------------------------------------|
C||---------------------------------------------------------------------------------|
G||-5v------5v------8---7---10---8---7h8p7----------7h8---5h7p5---------5h7---4h5p4-|
C||-----000-----000---0---0----0---0--------8--888------8--------7--777-----7-------|

F||---------------------------------------------------------------------|
C||---------------------------------------------------------------------|
G||-5v------5v------8h10---10h12---8h10p8p7-----7778881010108887775554b-|
C||-----000-----000------0-------0-----------888------------------------|

F||----------------------------------------------------|
C||-0----(0)----(0)----(0)----(0)----(0)----(0)--------|
G||-0----(0)----(0)----(0)----(0)----(0)----(0)--------|
C||-0----(0)----(0)----(0)----(0)----(0)----(0)----20\-|
    	                                       End Intro
Verse I:
F||------------------------------------------------------------------|
C||------------------------------------------------------------------|
G||-5-----5---5---8---7---10---8p7------5---5---5h7------4---4---4h5-|
C||---0-0---0---0---0---0----0------8-8---8---8------7-7---7---7-----|

F||---------------------------------------------------------------|
C||---------------------------------------------------------------|
G||-5-----5---5---8h12-8h12-7h10-7h10-----7778881010108887775554b-|
C||---0-0---0---0----------------------888------------------------|

F||------------------------------------------------------------------|
C||------------------------------------------------------------------|
G||-5-----5---5---8---7---10---8p7------5---5---5h7------4---4---4h5-|
C||---0-0---0---0---0---0----0------8-8---8---8------7-7---7---7-----|

F||---------------------------------------------------------------|
C||---------------------------------------------------------------|
G||-5-----5---5---8h12-8h12-7h10-7h10-----7778881010108887775554b-|
C||---0-0---0---0----------------------888------------------------|
                                                        End Verse I
Verse II:   
F||----------------------------------------------------------------|
C||----------------------------------------------------------------|
G||-----5---4h5---5h7---7h8---8h10------8---7h8---8h10---8p7---5p4-|
C||-0-0---0-----0-----0-----0-------8-8---0-----0------0-----0-----|x2
                                                        End Verse II
Verse III:
F||------------------------------------------------------------------|
C||------------------------------------------------------------------|
G||-5-----5---5---8---7---10---8p7------5---5---5h7------4---4---4h5-|
C||---0-0---0---0---0---0----0------8-8---8---8------7-7---7---7-----|

F||---------------------------------------------------------------|
C||---------------------------------------------------------------|
G||-5-----5---5---8h12-8h12-7h10-7h10-----7778881010108887775554b-|
C||---0-0---0---0----------------------888------------------------|

F||------------------------------------------------------------------|
C||------------------------------------------------------------------|
G||-5-----5---5---8---7---10---8p7------5---5---5h7------4---4---4h5-|
C||---0-0---0---0---0---0----0------8-8---8---8------7-7---7---7-----|

F||---------------------------------------------------------------|
C||---------------------------------------------------------------|
G||-5-----5---5---8h12-8h12-7h10-7h10-----7778881010108887775554b-|
C||---0-0---0---0----------------------888------------------------|
                                                      End Verse III
Verse IV:
F||-----------------------------------------------------------|
C||----------------------------------------121212777-7h8p7-5--|
G||---555777888---555777888---777888101010--------------------|
C||-0-----------7-----------8---------------------------------|x4
                                                   End Verse IV
Breakdown Part I:
F||----------------------------------|
C||----------------------------------|
G||----------------------------------|
C||------------------------------20\-|

F||-------------------------------------------------------------------------|
C||-------------------------------------------------------------------------|
G||-------------------------------------------------------------------------|
C||-0000--0000-0000-0-0000--0000-0000-0-0000--0000-0000-0-0000--0000-0000-0-|

F||-------------------------------------------------------------------------------------------------------|
C||-------------------------------------------------------------------------------------------------------|
G||-------------------------------------------------------------------------------------------------------|
C||-0000--0000-0000-0-0000--0000-0000-0-0000--0000-0000-0-0000--0000-000-0-0--------------------------11\-|
                                                                                       End Breakdown Part I
Breakdown Part II:
F||----------------------------------------------------------------------------|
C||----------------------------------------------------------------------------|
G||----------------------------------------------------------------------------|
C||-0-0-0-0-0----0-0-0-0-0--0-0-0-0-0--0--0-0-0-0-0----0-0-0-0-0--0-0-0-0-0--0-|

F||-----------------------------------------------------------------------------|
C||-----------------------------------------------------------------------------|
G||-----------------------------------------------------------------------------|
C||-0-0-0-0-0----0-0-0-0-0--0-0-0-0-0--0--0-0-0-0-0----0-0-0-0-0--0-0-0-0-0--8\-|

F||----------------------------------------------------------------------------|
C||----------------------------------------------------------------------------|
G||----------------------------------------------------------------------------|
C||-1-1-1-1-1----1-1-1-1-1--1-1-1-1-1--1--1-1-1-1-1----1-1-1-1-1--1-1-1-1-1--1-|
                                                           
F||-----------------------------------------------------------------------------|
C||-----------------------------------------------------------------------------|
G||-----------------------------------------------------------------------------|
C||-0-0-0-0-0----0-0-0-0-0--0-0-0-0-0--0--0-0-0-0-0----0-0-0-0-0--0-0-0-0-0--0--|
                                                            End Breakdown Part II
F||---------------------------|
C||-5-8-7---7-5-----7-5-------|
G||-------8-----8-7-----8-7-5-|
C||---------------------------|

Verse V:
F||--------------------------------------------------------------|
C||--------------------------------------------------------------|
G||--------------------------------------------------------------|
C||--------------------------------------------------------------|

F||--------------------------------------------------------------|
C||--------------------------------------------------------------|
G||----------------------------------------------5h8p5h8-4h7p4h7-|
C||--------------------------------------------------------------|

F||--------------------------------------------------------------|
C||--------------------------------------------------------------|
G||----------------------------------------------5h8p5h8-4h7p4h7-|
C||-0-0-0-0---0-0-0-0-0-0-5-7------0-0-0-0-0-0-0-----------------|x2
                                                       End Verse V
Verse VI:
F||--------------------------------------------------------|
C||--------------------------------------------------------|
G||---555444555777555777888777888101010888-5h8p5h8-4h7p4h7-|
C||-0------------------------------------------------------|

F||--------------------------------------------------|
C||--------------------------------------------------|
G||---5554445557775557778887775554b--5h8p5h8-4h7p4h7-|
C||-0------------------------------------------------|
                                          End Verse VI
Verse VII:
F||------------------------------------------------------------------|
C||------------------------------------------------------------------|
G||-5-----5---5---8---7---10---8p7------5---5---5h7------4---4---4h5-|
C||---0-0---0---0---0---0----0------8-8---8---8------7-7---7---7-----|

F||---------------------------------------------------------------|
C||---------------------------------------------------------------|
G||-5-----5---5---8h12-8h12-7h10-7h10-----7778881010108887775554b-|
C||---0-0---0---0----------------------888------------------------|

F||------------------------------------------------------------------|
C||------------------------------------------------------------------|
G||-5-----5---5---8---7---10---8p7------5---5---5h7------4---4---4h5-|
C||---0-0---0---0---0---0----0------8-8---8---8------7-7---7---7-----|

F||-----------------------------------------------------------------|
C||-----------------------------------------------------------------|
G||-5-----5---5---8h12-8h12-7h10-7h10-----777888101010888-7--5---4--|
C||---0-0---0---0----------------------888--------------------------|
                                                        End Verse VII
Outro:
F||-------------------------------------------------------------------------------------|
C||-------------------------------------------------------------------------------------|
G||-5v------5v-------5/8--7--8--8/10--8--7h8p0---------7h8---5h7p5----------5h7---4h5p4-|
C||-----000-----000-----------------------------8--888--------------7--777--------------|

F||--------------------------------------------------------------------------------|
C||--------------------------------------------------------------------------------|
G||-5v------5v------8h10---10h12---8h10p8p7----10/12--10--8h10p8----8/10--8--7h8p7-|
C||-----000-----000--------------------------8--------------------7----------------|

F||-------------------------------------------------------------------------------------|
C||-------------------------------------------------------------------------------------|
G||-5v------5v-------5/8--7--8--8/10--8--7h8p0---------7h8---5h7p5----------5h7---4h5p4-|
C||-----000-----000-----------------------------8--888--------------7--777--------------|

F||--------------------------------------------------------------------------------|
C||--------------------------------------------------------------------------------|
G||-5v------5v------8h10---10h12---8h10p8p7----10/12--10--8h10p8----8/10--8--7h8p7-|
C||-----000-----000--------------------------8--------------------7----------------|

F||------------------------------------------------|
C||------------------------------------------------|
G||------------------------------------------------|
C||-0----(0)----(0)----(0)----(0)----(0)----(0)----|
                                           End Outro
                                           Segue Into “My Fears Have Become Phobias”

            
            
Suggest correction
Creating personal tab
Creating personal tab
You can edit any tab online and save it as your Personal.

You can edit, replace or remove any tab part or add personal notes – all changes will be seen only by you.

Personal tabs can be accessed anytime from any device, even offline.
Learn more »
comments
print report bad tab
5 comments total. Showing first comments.
0 reply
MyBloodyBride 104 Jul 07, 2007 06:48 AM

if you watch the video of them on youtube on fpe tv they play this song and the first two notes arent 8 and 7 it goes 8 and then 10 i think

0 reply
deaththrashcore 436 Jul 08, 2007 08:57 AM

Maybe, but the way they play it on that video is different than the recorded version, I've watched it a lot. Ernie plays different harmonies and they add some slides and pinch harmonics and stuff. That's the way they play it live too.

0 reply
steinj57 10 Sep 05, 2008 12:50 PM

great tab 5* love this song

guest
You may want to rate the tab now too:
select rating
Wanna post a correction for this tab? Suggest correction