Oops, an error
Loading. Please wait.

My Fears Have Become Phobias tab

version 1
19,571 views 18 this week
5 commentsread comments
1 2 3 4 5
x 5
add to favorites
×
Save as Personal and add changes to this tab that will be seen only by you. Learn more ›
×
You can save this tab as Personal to edit and correct it or add notes. All changes will be seen only by you. Learn more »
launch autoscroll
font size
0
reset
how to read this tab
guitar tuner
edit
Autoscroll
slow
fast
+/-
esc
set tempo
stop
Author
Difficulty
Tabbed by: Daniel Maldonado
Email:nfht187@yahoo.com 
      www.youtube.com/profile?user=nfht187
Artist: As Blood Runs Black
Album: Allegiance (2006 Mediaskare Records)
Title: My Fears Have Become Phobias

Ok the whole song is right except i 
think the solo needs a little work.

Tuning:CGCFAD

x5
D|-----------------------------------------------------------------|
A|-----------------------------------------------------------------|
F|-----------------------------------------------------------------|
C|0~---------------------000---------------------0000000-----------|
G|0~-8h12h8h12-7h10h7h10-000-8h12h8h12-7h10h7h10-0000000-8h12h8h12-|
C|0~---------------------000---------------------0000000-----------|
PM.                      ...                     .......
D|---------------------------------------------------------|
A|---------------------------------------------------------|
F|--------------------------------------------9h12h9h12----|
C|-----------000--------------------8h11h8h11------------0-|
G|7h10h7h10-000-8h12h8h12-7h10h7h10----------------------0-|
C|-----------000-----------------------------------------0-|
PM           ...                                         .

x4
Listen to the song for the breakdown pattern.
D|-----------------------------------------|
A|-----------------------------------------|
F|-----------------------------------------|
C|/--00000000000000000000-------000--------|
G|/--00000000000000000000--5h4--000--7--1--|
C|/--00000000000000000000-------000--------|
PM   ....................       ...

x8
D|----------------------------------------|
A|----------------------------------------|
F|----------------------------------------|
C|----------------------------------------|
G|----8---7---8---7h8h10-10-8h7-7h8p7--5--|
C|000---0---0---0-------------------------|
PM...   .   .   .

Solo
D|-------------------------------------------------------------------------|
A|-------------------------------------------------------------------------|
F|-----7777-9999-10101010-12121212-14141414--15-14-12-10--17h20p17--151515-|
C|000----------------------------------------------------------------------|
G|000----------------------------------------------------------------------|
C|000----------------------------------------------------------------------|
PM...
D|--------------------------------------------------------------|
A|------------------------------------------------------*10-----|
F|15h18p15--141414--14h17p14--121212--12h15p12--9--9109-----910-|
C|--------------------------------------------------------------|
G|--------------------------------------------------------------|
C|--------------------------------------------------------------|

D|---------------------------------------------------------------------|
A|-----*10-------------------------------------------------------------|
F|9109-----910--17h20p17-15h18p15-14h17p14-12h15p12-10h13p10-9h12p9--7-|
C|---------------------------------------------------------------------|
G|---------------------------------------------------------------------|
C|---------------------------------------------------------------------|

D|------------------------------------------------------------|
A|---------------15h18p15----------------------15h18p15-------|
F|------14-15-14----------15-14-------14-15-14----------15-14-|
C|---15----------------------------15-------------------------|
G|17----------------------------17----------------------------|
C|------------------------------------------------------------|

D|------------------------------------------------------------|
A|------------------------------------------------------------|
F|------14-15-14-14h15p14-------------14-15-14-14h15p14-------|
C|---15-------------------15-14----15-------------------15-14-|
G|17----------------------------17----------------------------|
C|------------------------------------------------------------|

x16
D|-----------------|
A|-----------------|
F|-----------------|
C|-----------------|
G|----8h7-----8h10-|
C|000-----000------|
PM...     ...

x1
D|------|
A|------|
F|------|
C|0-1-0-|
G|0-1-0-|
C|0-1-0-|
PM. . .  

x4
Listen to the song for the breakdown pattern.
D|--------------------------|
A|--------------------------|
F|--------------------------|
C|0-1-0---000--000000000000-|
G|0-1-0---000--000000000000-|
C|0-1-0---000--000000000000-|
PM. . .   ...  ............

x1
D|-------------|
A|-------------|
F|-------------|
C|3-2-0-1--3-3-|
G|3-2-0-1--3-2-|
C|3-2-0-1--3-1-|
PM. . . . 

x4
D|--------------------|
A|--------------------|
F|--------------------|
C|0-1-0--000000000000-|
G|0-1-0--000000000000-|
C|0-1-0--000000000000-|
PM. . .  ............

x4
D|-----------------------------------------------------------------|
A|-----------------------------------------------------------------|
F|-----------------------------------------------------------------|
C|0~---------------------000---------------------0000000-----------|
G|0~-8h12h8h12-7h10h7h10-000-8h12h8h12-7h10h7h10-0000000-8h12h8h12-|
C|0~---------------------000---------------------0000000-----------|
PM.                      ...                     .......
D|---------------------------------------------------------|
A|---------------------------------------------------------|
F|--------------------------------------------9h12h9h12----|
C|-----------000--------------------8h11h8h11------------0-|
G|7h10h7h10-000-8h12h8h12-7h10h7h10----------------------0-|
C|-----------000-----------------------------------------0-|
PM           ...                                         .

x4
D|------------------------------------|
A|------------------------------------|
F|------------------------------------|
C|------------------------------------|
G|----4---4---4h7p4-----5---5---5h8p5-|
C|000---0---0-------000---0---0-------|
PM...   .   .       ...   .   .

x4
D|------|
A|------|
F|------|
C|0-1-0-|
G|0-1-0-|
C|0-1-0-|
PM. . .  

x1
D|--------|
A|--------|
F|--------|
C|2-0-1-0-|
G|2-0-1-0-|
C|2-0-1-0-|
PM. . . .


x4
Listen to the song for the breakdown pattern.
D|--------------------------|
A|--------------------------|
F|--------------------------|
C|0-1-0---000--000000000000-|
G|0-1-0---000--000000000000-|
C|0-1-0---000--000000000000-|
PM. . .   ...  ............

x1
D|------|
A|------|
F|------|
C|0-1-0-|
G|0-1-0-|
C|0-1-0-|
PM. . .  

| /  slide up
| \  slide down
| h  hammer-on
| p  pull-off
| ~  vibrato
| +  harmonic
| x  Mute note
| *  pinch harmonic


            
            
Suggest correction
Creating personal tab
Creating personal tab
You can edit any tab online and save it as your Personal.

You can edit, replace or remove any tab part or add personal notes – all changes will be seen only by you.

Personal tabs can be accessed anytime from any device, even offline.
Learn more »
comments
print report bad tab
5 comments total. Showing first comments.
0 reply
laxcountry07 30 Aug 11, 2006 08:59 AM

very nice

0 reply
a7x_rocker_a7x 10 Sep 15, 2006 07:47 PM

great job. POWER TAB OF THIS UP SOON!!!!! CATCH IT ITS PRETTY MUCH ALL RIGHT!!!!!!!!!!!

0 reply
Unknown_Tragedy 130 Oct 21, 2006 07:33 AM

DUDE WHEN HE PALM MUTES IT'S ONLY ONE STRING NOT ALL THREE

guest
You may want to rate the tab now too:
select rating
Wanna post a correction for this tab? Suggest correction