Oops, an error
Loading. Please wait.

My Fears Have Become Phobias tab

version 5
3,446 views 6 this week
4 commentsread comments
1 2 3 4 5
x 4
add to favorites
×
Save as Personal and add changes to this tab that will be seen only by you. Learn more ›
×
You can save this tab as Personal to edit and correct it or add notes. All changes will be seen only by you. Learn more »
launch autoscroll
font size
0
reset
how to read this tab
guitar tuner
edit
Autoscroll
slow
fast
+/-
esc
set tempo
stop
Author
Okay, this is my first tab. This tab includes 3 guitars. Actually, this is the style of 
band. I don't know if it's right or not, but it sounds great when we jamming. You should 
it also.
Anyway, here.

Intro,

Guitar 1
D|---------------------------------------|
A|---------------------------------------|
F|---------------------------------------|
C|---------------------------------------|
G|---------------------------------------|
C|-12\\\\0~(0)---------------------------|

Guitar 2
D|---------------------------------------------------------------------|
A|---------------------------------------------------------------------|
F|---------------------------------------------------------------------|
C|---------------------------------------------------------------------| x2
G|--------------8h12p8h12-7h10p7h10-----8h12p8h12-7h10p7h10------------|
C|----------000---------------------000---------------------00000000000|
            ...                     ...                     ...........
                                                                  ^
                                                            Do not repeat
                                                            second time.
Guitar 3
D|---------------------------------------|
A|---------------------------------------|
F|---------------------------------------|
C|---------------------------------------|
G|---------------------------------------|
C|-12\\\\0~(0)---------------------------|

Guitar 1 and 3 enter,

Guitar 1
D|------------------------------------|
A|------------------------------------|
F|---------6h9p6h9--------------------|
C|-5h8p5h8----------------------------|
G|------------------------------------|
C|------------------------------------|

Guitar 2
D|-------------------------------------|
A|-------------------------------------|
F|-----------9h12p9h12-----------------|
C|-8h11p8h11---------------------------|
G|-------------------------------------|
C|-------------------------------------|

Guitar 3
D|------------------------------------|
A|------------------------------------|
F|---------6h9p6h9--------------------|
C|-5h8p5h8----------------------------|
G|------------------------------------|
C|------------------------------------|

Intro with all guitars,

Guitar 1
D|----------------------------------------------------------|
A|----------------------------------------------------------|
F|----------------------------------------------------------|
C|--------------------------------------------------------x2|
G|------5h8p5h8-4h7p4h7--------5h8p5h8-4h7p4h7--------------|
C|-000---------------------000-----------------00000000000--|
   ...                     ...                 ...........
Then,
D|------------------------------------|
A|------------------------------------|
F|---------6h9p6h9--------------------|
C|-5h8p5h8----------------------------|
G|------------------------------------|
C|------------------------------------|

Guitar 2
D|--------------------------------------------------------------|
A|--------------------------------------------------------------|
F|--------------------------------------------------------------|
C|------------------------------------------------------------x2|     X4
G|-----8h12p8h12-7h10p7h10-----8h12p8h12-7h10p7h10--------------|
C|-000---------------------000---------------------00000000000--|
   ...                     ...                     ...........
Then,
D|-------------------------------------|
A|-------------------------------------|
F|-----------9h12p9h12-----------------|
C|-8h11p8h11---------------------------|
G|-------------------------------------|
C|-------------------------------------|

Guitar 3
D|----------------------------------------------------------|
A|----------------------------------------------------------|
F|----------------------------------------------------------|
C|--------------------------------------------------------x2|
G|------5h8p5h8-4h7p4h7--------5h8p5h8-4h7p4h7--------------|
C|-000---------------------000-----------------00000000000--|
   ...                     ...                 ...........
Then,
D|------------------------------------|
A|------------------------------------|
F|---------6h9p6h9--------------------|
C|-5h8p5h8----------------------------|
G|------------------------------------|
C|------------------------------------|

Breakdown,
Guitar 1, 2 and 3.(third time is kinda confusing and its harmonized on guitar 2 so 
to the song)
D|---------------------------------------------------------------------|
A|---------------------------------------------------------------------|
F|---------------------------------------------------------------------|
C|---------------------------------------------------------------------| X4
G|--------0-0-0-0--0-0-0-0--0--0-0-0-0-0-0-0-0--0-0-0-0-5p4-----7///1~-|
C|-12\\\\-0-0-0-0--0-0-0-0--0--0-0-0-0-0-0-0-0--0-0-0-0-----000--------|
          . . . .  . . . .  .  . . . . . . . .  . . . .     ...

Guitar 2 (on third time and fourth),
D|------------------------------------|
A|------------------------------------|
F|------------------------------------|
C|------------------------------------|
G|-8p7-----10///4~--------------------|
C|-----000----------------------------|
       ...

Verse,

Guitar 1 and 3
D|------------------------------------------------------------------------------------------|
A|------------------------------------------------------------------------------------------|
F|------------------------------------------------------------------------------------------|
C|------------------------7-----------------------------------------8-----------------------|
G|-----8---7---10---7h8h10-10p8p7--7h8p7-5~-----8---7---10---8h10h12-12p10p8--8h10p8-7~-----|
C|-000---0---0----0-------------------------000---0---0----0--------------------------------|

Guitar 2(on third and fourth time),
D|-----------------------------------------------------------------------------------------|
A|-----------------------------------------------------------------------------------------|
F|-----------------------------------------------------------------------------------------|
C|----------------------------10------------------------------------------------12---------|
G|-----12---10---13---10h12h13--13p12p10-10h12p10-8~-----12---10---13---12h13h15--15p13p12-|
C|-000----0----0----0--------------------------------000----0----0----0--------------------|

-------------|
-------------|
-------------|
-------------|
12h13p12-10~-|
-------------|

Solo, (Thanks to Mystievel's solo tab and GuitarNubie for the guitar 3 palm mutes)

Guitar 1
D|----------------------------------------------------------------|
A|----------------------------------------------------------------|
F|-------------------------------12-10-12--14-12-14---14----------|
C|----12-11-12-14-12-14-15-14-15--------------------15--15-14~----|
G|----------------------------------------------------------------|
C|-00-------------------------------------------------------------|
   ..

Guitar 3
D|------------------------------------------------------------------|
A|------------------------------------------------------------------|
F|------------------------------------------------------------------|
C|------------------------------------------------------------------|
G|------------------------------------------------------------------|
C|-0-0-0-0-0-0-0-0-0-0-0-0-0-0-0-0-0-0-0-0-0-0-0-0-0-0-0-0-0-0-0-0-0|
   . . . . . . . . . . . . . . . . . . . . . . . . . . . . . . . . .

Guitar 1
D|--13h17p13----------12h15p12---------10h13p10---------5h8p5-----|
A|----------15----------------13---------------11------------6-5~-|
F|------------151515------------141414-----------121212-----------|
C|----------------------------------------------------------------|
G|----------------------------------------------------------------|
C|----------------------------------------------------------------|

Guitar 2
D|--13h17p13---------12h15p12--------10h13p10----------5h8p5------|
A|----------15151515---------13131313---------11111111-------6-/8-|
F|----------------------------------------------------------------|
C|----------------------------------------------------------------|
G|----------------------------------------------------------------|
C|----------------------------------------------------------------|

Guitar 3
D|------------------------------------------------------------------|
A|------------------------------------------------------------------|
F|------------------------------------------------------------------|
C|------------------------------------------------------------------|
G|------------------------------------------------------------------|
C|-8-8-8-8-8-8-8-8-8-8-8-8-8-8-8-5-5-5-5-5-5-5-5-5-5-5-5-5-5-5-5-5-5|
   . . . . . . . . . . . . . . . . . . . . . . . . . . . . . . . . .

Guitar 1
D|----------------------------------------------------------------|
A|---------10*--------------10*-----------------------------------|
F|----10-9----10-9-----10-9-----10-9------------------------------|
C|-12---------------12--------------------------------------------|
G|----------------------------------------------------------------|
C|----------------------------------------------------------------|

Guitar 2
D|---------5*--------------5*-------------------------------------|
A|----10-8----10-8----10-8----10-8--------------------------------|
F|-10--------------10---------------------------------------------|
C|----------------------------------------------------------------|
G|----------------------------------------------------------------|
C|----------------------------------------------------------------|

Guitar 3
D|------------------------------------------------------------------|
A|------------------------------------------------------------------|
F|------------------------------------------------------------------|
C|------------------------------------------------------------------|
G|------------------------------------------------------------------|
C|-0-0-0-0-0-0-0-0-0-0-0-0-0-0-0-0-0-0-0-0-0-0-0-0-0-0-0-0-0-0-0-0-0|
   . . . . . . . . . . . . . . . . . . . . . . . . . . . . . . . . .

Guitar 1
D|----------------------------------------------------------------|
A|-17p14--14------------------------------------------------------|
F|------15--15-14--15-14-12-14-12---------------------------------|
C|------------------------------15--14-15-14-12-14-12-11~---------|
G|----------------------------------------------------------------|
C|----------------------------------------------------------------|

Guitar 2
D|----------------------------------------------------------------|
A|-20p17--17-------17---------------------------------------------|
F|------18--18-19----19-18--18------------------------------------|
C|------------------------19--19--17-19-17-15-17-15-14~-----------|
G|----------------------------------------------------------------|
C|----------------------------------------------------------------|

Guitar 3
D|------------------------------------------------------------------|
A|------------------------------------------------------------------|
F|------------------------------------------------------------------|
C|------------------------------------------------------------------|
G|------------------------------------------------------------------|
C|-0-0-0-0-0-0-0-0-0-0-0-0-0-0-0-0-0-0-0-0-0-0-0-0-0-0-0-0-0-0-0-0-0|
   . . . . . . . . . . . . . . . . . . . . . . . . . . . . . . . . .

Guitar 1
D|----------------13h17p13-----------------------13h17p13----------|
A|--------15p14-----------15-------------15p14-----------15--------|
F|------14-----14------------14~-------14-----14-----------14~-----|
C|-12h15--------------------------12h15----------------------------|
G|-----------------------------------------------------------------|
C|-----------------------------------------------------------------|

Guitar 3
D|------------------------------------------------------------------|
A|------------------------------------------------------------------|
F|------------------------------------------------------------------|
C|------------------------------------------------------------------|
G|------------------------------------------------------------------|
C|-0-0-0-0-0-0-0-0-0-0-0-0-0-0-0-0-0-0-0-0-0-0-0-0-0-0-0-0-0-0-0-0-0|
   . . . . . . . . . . . . . . . . . . . . . . . . . . . . . . . . .

Guitar 1
D|-----------------------------------------------------------------|
A|-----------------------------------------------------------------|
F|--------14h15p14--14--------------------14h15p14--14-------------|
C|------17--------17--17-15-14~---------17--------17--17-15-14~----|
G|-13h17---------------------------13h17---------------------------|
C|-----------------------------------------------------------------|

Guitar 3
D|-----------------------------------------------------------------|
A|-----------------------------------------------------------------|
F|-----------------------------------------------------------------|
C|-----------------------------------------------------------------|
G|-----------------------------------------------------------------|
C|-8-8-8-8-8-8-8-8-8-8-8-8-8-8-8-8-3-3-3-3-3-3-3-3-3-3-7-7-7-7-7-7-|
   . . . . . . . . . . . . . . . . . . . . . . . . . . . . . . . .

End of solo(guitar 3)

Guitar 3
D|---------|
A|---------|
F|---------|
C|---------|
G|---------|
C|-12\\\\0~|

Verse 2, (Thanks to _sXe_ for the Guitar 1)

Guitar 1
D|--------------------------------------------|
A|--------------------------------------------|
F|--------------------------------------------|
C|--------------------------------------------|
G|-----5/8-7~---7h10-X2-----8p7----10/12-X2---| I don't how many times to
C|-000-------00---------000-----00------------| repeat. Listen to the song.
   ...       ..         ...     ..

Guitar 2 (on second time of guitar 1),
D|-----------------------------------------------|
F|-----------------------------------------------|
A|-----------------------------------------------|
C|-----------------------------------------------|
G|-----8/12-10----10h13-X2-----12p10----13/15-X2-|
C|-000---------00----------000-------00----------|
   ...         ..          ...       ..

Breakdown 2,

Guitar 1, 2 and 3.
D|-------|
A|-------|
F|-------|
C|-------|
G|-0-1-0-|
C|-0-1-0-|

Guitar 1, 2 and 3.
D|----------------------------------------|
A|----------------------------------------|
F|----------------------------------------|
C|----------------------------------------|  X4
G|--------0-1-0--000--0--00--00--00000000-|
C|-12\\\\-0-1-0--000--0--00--00--00000000-|

Guitar 1.
D|-------------|
A|-------------|
F|-------------|
C|3-2-0-1--3-3-|
G|3-2-0-1--3-2-|
C|3-2-0-1--3-1-|
  . . . .

Breakdown 2 part 2,

Guitar 1, 2 and 3.
D|--------------------|  Okay, this is kinda confusing and tricky.
A|--------------------|   Listen to the song.
F|--------------------|
C|--------------------|    X4
G|0-1-0--000000000000-|
C|0-1-0--000000000000-|

Intro again, (okay, this time is a little bit different than usual).

Guitar 1 and 3.
D|-------------------------------------------------------------------------------------------------|
A|-------------------------------------------------------------------------------------------------|
F|-------------------------------------------------------------------------------------------------|
C|-------------------------------------------------------------------------------------------------|
G|-0~--(Sustain)-----------------------------------------------5h8p5h8-4h7p4h7-----5h8p5h8-4h7p4h7-|
C|-0~----------------------------------------------00000000000-----------------000-----------------|
   .                                               ...........

D|------------------------------------|
A|------------------------------------|
F|---------6h9p6h9--------------------|
C|-5h8p5h8----------------------------|
G|------------------------------------|
C|------------------------------------|

Guitar 2.
D|------------------------------------------------------------|
A|------------------------------------------------------------|
F|------------------------------------------------------------|     <^X4
C|------------------------------------------------------------|      v
G|-----8h12p8h12-7h10p7h10-----8h12p8h12-7h10p7h10------------|
C|-000---------------------000---------------------00000000000|
   ...                     ...                     ...........

D|-------------------------------------|
A|-------------------------------------|
F|-----------9h12p9h12-----------------|
C|-8h11p8h11---------------------------|
G|-------------------------------------|
C|-------------------------------------|

Abruptly stop.
Then,

Verse 3,

Guitar 1 and 3.
D|------------------------------------------------|
A|------------------------------------------------|
F|------------------------------------------------|
C|------------------------------------------------|
G|-----4---4---4h5h7-X2-----5---5---5h7h8-X2------|
C|-000---0---0----------000---0---0---------------|
   ...   .   .          ...   .   .

Guitar 2.(after second time repeat of guitar 1)          X4
D|------------------------------------------------|
A|------------------------------------------------|
F|------------------------------------------------|
C|------------------------------------------------|
G|-----7---7---7h8h10-X2-----8---8---8h10h12-X2---|
C|-000---0---0-----------000---0---0--------------|
   ...   .   .           ...   .   .

Breakdown 3,

Guitar 1, 2 and 3.
D|------|
A|------|
F|------|
C|------|   X4
G|0-1-0-|
C|0-1-0-|
  . . .

Guitar 1, 2 and 3.
D|---------|
A|---------|
F|---------|
C|---------|
G|-3-2-0-1-|
C|-3-2-0-1-|
   . . . .

Guitar 1, 2 and 3.
D|----------------------------------------|
A|----------------------------------------|
F|----------------------------------------|
C|----------------------------------------|  X4
G|--------0-1-0--000--0--00--00--00000000-|
C|-12\\\\-0-1-0--000--0--00--00--00000000-|
          . . .  ...  .  ..  ..  ........

Guitar 1, 2 and 3.
D|------|
A|------|
F|------|
C|------|
G|0-1-0-|
C|0-1-0-|
  . . .

The end. Phew~
There you go.
Please rate my tab.
Thanks!

            
            
Suggest correction
Creating personal tab
Creating personal tab
You can edit any tab online and save it as your Personal.

You can edit, replace or remove any tab part or add personal notes – all changes will be seen only by you.

Personal tabs can be accessed anytime from any device, even offline.
Learn more »
comments
print report bad tab
4 comments total. Showing first comments.
0 reply
MHI 62 Jun 22, 2009 11:25 PM

Um, guys.
Onto the Verse, I forgot to put '.' below the 0's. But you'll figure it out anyway.

0 reply
MHI 62 Jun 22, 2009 11:27 PM

Oh, as well as the "Breakdown 2 part 2".

0 reply
brutalx 124 May 04, 2010 05:54 PM

this is a good tab for what its worth. everyone seems to complicate the solo more than it needs to be tho...for instance:
d----------------------------------------------------------------|
A----------------------------------------------------------------|
F-------------------------------12-10-12--14-12-14---14----------|
C----12-11-12-14-12-14-15-14-15--------------------15--15-14~----|
G----------------------------------------------------------------|
C-00-------------------------------------------------------------|

since 10 on the f string is the same note as 15 on the c string couldn't you also play the solo as:(its a bit easier and its how i play it)

d----------------------------------------------------------------|
A----------------------------------------------------------------|
F-------------------------------12----12--14-12-14---14----------|
C----12-11-12-14-12-14-15-14-15----15--------------15--15-14~----|
G----------------------------------------------------------------|
C-00-------------------------------------------------------------|
and the 13h17p13 section (i want to call it up-sweeping but i feel that isnt the term) is a bit off but good tab 4*

guest
You may want to rate the tab now too:
select rating
Wanna post a correction for this tab? Suggest correction