Oops, an error
Loading. Please wait.
We have an official Darkest Nights tab made by UG professional guitarists. Check out the tab »
×
13,767 views 12 this week
2 commentsread comments
1 2 3 4 5
x 5
add to favorites
×
Save as Personal and add changes to this tab that will be seen only by you. Learn more ›
×
You can save this tab as Personal to edit and correct it or add notes. All changes will be seen only by you. Learn more »
launch autoscroll
font size
0
reset
guitar tuner
edit
Autoscroll
slow
fast
+/-
esc
set tempo
stop
----------------------------------------------------------------------------
			     Darkest Nights - As I Lay Dying
----------------------------------------------------------------------------


Tabbed By : Chris Voysey
e-mail: evilmudman@hotmail.com


Tuning: Drop C   ( C G C F )


Intro/Chorus (8's can be changed to 1's on G, same note)
F|-------------------------------------------------------------------------|
C|-------------------------------------------------------------------------|
G|-------------------------------------------------------------------------|
C|-8-8-8-8-8-8-8-8-8-8-8-8-8-8-8-8--0-0-0-0-0-0-0--3-3-3-3-3-3-3-3---------|

(8's can be changed to 1's on G, 10's can be changed to 3's on G, same notes)
F|-------------------------------------------------------------------------|
C|-------------------------------------------------------------------------|
G|-------------------------------------------------------------------------|
C|-8-8-8-8-8-8-8-8-8-8-8-8-8-8-8-8--0-0-0-0-0-0-0--10-10-10-10-10-10-10-10-|


Breakdown
F|-------------------------------------------------------------------------|
C|-------------------------------------------------------------------------|
G|-------------------------------------------------------------------------|
C|---0~-------------0--00---------------8~---10--7~------------------------|


Verse
F|-------------------------------------------------------------------------|
C|-------------------------------------------------------------------------|
G|-----------------------------------------------------1-1-1-1--3-3-3-3----|
C|-0-0-0-0-0-0-0-0--3-3-3-3--5-5-5-5--0-0-0-0-0-0-0-0----------------------|

F|-------------------------------------------------------------------------|
C|-------------------------------------------------------------------------|
G|------------------------------------1-1-1-1-1-1-1-1--3-3-3-3--0-0-0-0----|
C|-0-0-0-0-0-0-0-0--3-3-3-3--5-5-5-5---------------------------------------|


Bridge
F|-------------------------------------------------------------------------|
C|-------------------------------------------------------------------------|
G|-------------------------------------------------------------------------|
C|-0-0-0-0-0-0-0--3-3-3-3-3-3-3--5-5-5-5-5-5-5--8-8-8-8-8-8-8--------------|


Bridge cont.
F|-------------------------------------------------------------------------|
C|-------------------------------------------------------------------------|
G|-------------------------------------------------------------------------|
C|-0-0-0-0-0-0-0--7-7-7-7-7-7-7--8-8-8-8-8-8-8--10-10-10-10-10-10-10-------|


Alternative Bridge (same as Guitar, for if you get bored)
F|-------------------------------------------------------------------------|
C|----------------------------7---------7-8-7------------------------------|
G|------8-7--------8-7----------10-8-10-------10~-8-7~---------------------|
C|--0-0-----10-7-7-----10-8-8----------------------------------------------|


Alternative Bridge cont. (same as Guitar, for if you get bored)
F|-------------------------------------------------------------------------|
C|----------------------------7---------7-8-7----7-------------------------|
G|------8-7--------8-7----------10-8-10-------10---10-8~-------------------|
C|--0-0-----10-7-7-----10-8-8----------------------------------------------|


Song Order:
-----------
Intro/Chorus x2
Breakdown x1
Verse x2
Bridge x2
Bridge cont. x2
Intro/Chorus x2
Verse x2
Bridge x2
Bridge cont. x2
Intro/Chorus  (repeat till fade)


            
            
Suggest correction
Creating personal tab
Creating personal tab
You can edit any tab online and save it as your Personal.

You can edit, replace or remove any tab part or add personal notes – all changes will be seen only by you.

Personal tabs can be accessed anytime from any device, even offline.
Learn more »
comments
print report bad tab
2 comments total.
0 reply
skateswitch 71 Jun 28, 2007 10:16 PM

this is pretty much exactly it, ha i think i need to try that bridge

0 reply
CptSpinout 10 Sep 27, 2007 11:22 AM

This is either exactly it or really close. There are some parts i cant quite get but its better than a basic outline. good job.

guest
You may want to rate the tab now too:
select rating
Wanna post a correction for this tab? Suggest correction