Oops, an error
Loading. Please wait.

Elegy tab

version 4
version 4
3,096 views 6 this week
5 commentsread comments
1 2 3 4 5
1 last vote to show rating
add to favorites
×
Save as Personal and add changes to this tab that will be seen only by you. Learn more ›
×
You can save this tab as Personal to edit and correct it or add notes. All changes will be seen only by you. Learn more »
launch autoscroll
font size
0
reset
how to read this tab
guitar tuner
backing track
0:00
0:00
edit
Autoscroll
slow
fast
+/-
esc
set tempo
stop
Artist:  As I Lay Dying
Song:  Elegy
Album:  Frail Words Collapse (2003)

This is an awesome song and my music project are covering this song.  This IS 100%!!!

pm: palm mute
h: hammer on
p: pull off
/: slide

Intro
Gtr 1
D|-------------------------------------------------------------------------|
A|-------------------------------------------------------------------------|
F|-------------------------------------------------------------------------|
C|--------------------0------------------8/10-8-7h8-7h8p7------------------|
G|-----8p7p0-10p8p0---0---8p7p0-10p8p0--------------------10-8-7h8---------|
C|-00---------------0-0-0--------------0-----------------------------------|
pm ..               .   .              .

Gtr 2
D|-------------------------------------------------------------------------|
A|-------------------------------------------------------------------------|
F|-------------------------------------------------------------------------|
C|--------------------0------------------8---8---8-8-8-8--10--10--10-10-10-|
G|-----8p7p0-10p8p0---0---8p7p0-10p8p0---8---8---8-8-8-8--10--10--10-10-10-|
C|-00---------------0-0-0--------------0-8---8---8-8-8-8--10--10--10-10-10-|
pm ..               .   .              .

Gtr 1
D|-------------------------------------------------------------------------|
A|-------------------------------------------------------------------------|
F|-------------------------------------------------------------------------|
C|--------------------0----------------------7-8-5-7---10-8-7----7---------|
G|-----8p7p0-10p8p0---0---8p7p0-10p8p0---5-8---------8--------10---8-10-7-8|
C|-00---------------0-0-0--------------0-----------------------------------|
pm ..               .   .              . . . . . . . .(gradually release pm)

Gtr 2
D|-------------------------------------------------------------------------|
A|-------------------------------------------------------------------------|
F|-------------------------------------------------------------------------|
C|--------------------0------------------8---8---8-8-8-8--7---7---7-7-7-7--|
G|-----8p7p0-10p8p0---0---8p7p0-10p8p0---8---8---8-8-8-8--7---7---7-7-7-7--|
C|-00---------------0-0-0--------------0-8---8---8-8-8-8--7---7---7-7-7-7--|
pm ..               .   .              .

Gtr 1
D|-------------------------------------------------------------------------|
A|-------------------------------------------------------------------------|
F|-------------------------------------------------------------------------|
C|--------------------0------------------8/10-8-7h8-7h8p7------------------|
G|-----8p7p0-10p8p0---0---8p7p0-10p8p0--------------------10-8-7h8---------|
C|-00---------------0-0-0--------------0-----------------------------------|
pm ..               .   .              .

Gtr 2
D|-------------------------------------------------------------------------|
A|-------------------------------------------------------------------------|
F|-------------------------------------------------------------------------|
C|--------------------0------------------8---8---8-8-8-8--10--10--10-10-10-|
G|-----8p7p0-10p8p0---0---8p7p0-10p8p0---8---8---8-8-8-8--10--10--10-10-10-|
C|-00---------------0-0-0--------------0-8---8---8-8-8-8--10--10--10-10-10-|
pm ..               .   .              .

Gtr 1
D|-------------------------------------------------------------------------|
A|-------------------------------------------------------------------------|
F|-------------------------------------------------------------------------|
C|--------------------0----------------------7-8-5-7------777~--333~-------|
G|-----8p7p0-10p8p0---0---8p7p0-10p8p0---5-8---------8----777~--333~-------|
C|-00---------------0-0-0--------------0------------------777~--333~-------|
pm ..               .   .              . . . . . . . .    ..    ..

Gtr 2
D|-------------------------------------------------------------------------|
A|-------------------------------------------------------------------------|
F|-------------------------------------------------------------------------|
C|--------------------0------------------8---8---8-8-8-8--777~--333~-------|
G|-----8p7p0-10p8p0---0---8p7p0-10p8p0---8---8---8-8-8-8--777~--333~-------|
C|-00---------------0-0-0--------------0-8---8---8-8-8-8--777~--333~-------|
pm ..               .   .              .                  ..    ..



Verse 
Gtr 1 2x
D|-------------------------------------------------------------------------|
A|-------------------------------------------------------------------------|
F|-------------------------------------------------------------------------|
C|------7-8-5-7---0-000-000-000-----7-8-5-7---10--8-7-8--7-5-7-------------|
G|--5-8---------8-0-000-000-000-5-8---------8------------------------------|
C|----------------0-000-000-000--------------------------------------------|
pm                  ... ... ...

Gtr 2  
D|-------------------------------------------------------------------------|
A|-------------------------------------------------------------------------|
F|-------------------------------------------------------------------------|
C|----------------0~-------------------------------------------------------|
G|----------------0~-------------------------------------------------------|
C|----------------0~-------------------------------------------------------|

D|-----------------------------------------------|
A|-----------------------------------------------|
F|-----------------------------------------------|
C|--0~---------------------------0---------------|
G|--0~---------------------------0-dont let ring-|
C|--0~---------------------------0---------------|

Both Guitars 4x
D|-------------------------------------------------------------------------|
A|-------------------------------------------------------------------------|
F|-------------------------------------------------------------------------|
C|------7-8-5-7---0-000-000-000-----7-8-5-7---10--8-7-8--7-5-7-------------|
G|--5-8---------8-0-000-000-000-5-8---------8------------------------------|
C|----------------0-000-000-000--------------------------------------------|
pm                  ... ... ...



Pre-Chorus
Both Guitars 2x
D|-------------------------------------------------------------------------|
A|-------------------------------------------------------------------------|
F|-------------------------------------------------------------------------|
C|-----------------------------------------------------------10-8-7--------|
G|------7---7h8---3---10-8-7-8-7-5------7---7h8---1---10-8-7---------------|
C|--0-0---0-----0---0---------------0-0---0-----0---0----------------------|
pm  . .   .     .   .               . .   .     .   .

D|-------------------------------------------------------------------------|
A|-------------------------------------------------------------------------|
F|-------------------------------------------------------------------------|
C|----------------------------------------------8--8---10--10-10-10--------|
G|------7---7h8---3---10-8-7-8-7-5------7---7h8-8--8---10--10-10-10--------|
C|--0-0---0-----0---0---------------0-0---0-----8--8---10--10-10-10--------|
pm  . .   .     .   .               . .   . 

    
Chorus
Both Guitars
D|-------------------------------------------------------------------------|
A|-------------------------------------------------------------------------|
F|-------------------------------------------------------------------------|
C|-8-------0-----------8-------0--------10---------------------------------|
G|-8-(16x)-0-(16x)-----8-(16x)-0-(8x)---10-(8x)----------------------------|
C|-8-------0-----------8-------0--------10---------------------------------|

Gtr 1
D|-------------------------------------------------------------------------|
A|-------------------------------------------------------------------------|
F|-------------------------------------------------------------------------|
C|-8-------0-----------8-------0--------10---------------------------------|
G|-8-(16x)-0-(16x)-----8-(16x)-0-(8x)---10-(8x)----------------------------|
C|-8-------0-----------8-------0--------10---------------------------------|

Gtr 2
D|-------------------------------------------------------------------------|
A|-------------------------------------------------------------------------|
F|-10-9-7--7/9/7/5/7---10-9-7--12-10-99/10---------------------------------|
C|-x--x-x--x/x/x/x/x---x--x-x--x--x--xx/x----------------------------------|
G|-8--7-5--5/7/5/3/5---8--7-5--10-8--77/8----------------------------------|
C|-------------------------------------------------------------------------|



Intro
Gtr 1
D|-------------------------------------------------------------------------|
A|-------------------------------------------------------------------------|
F|-------------------------------------------------------------------------|
C|--------------------0------------------8/10-8-7h8-7h8p7------------------|
G|-----8p7p0-10p8p0---0---8p7p0-10p8p0--------------------10-8-7h8---------|
C|-00---------------0-0-0--------------0-----------------------------------|
pm ..               .   .              .

Gtr 2
D|-------------------------------------------------------------------------|
A|-------------------------------------------------------------------------|
F|-------------------------------------------------------------------------|
C|--------------------0------------------8---8---8-8-8-8--10--10--10-10-10-|
G|-----8p7p0-10p8p0---0---8p7p0-10p8p0---8---8---8-8-8-8--10--10--10-10-10-|
C|-00---------------0-0-0--------------0-8---8---8-8-8-8--10--10--10-10-10-|
pm ..               .   .              .

Gtr 1
D|-------------------------------------------------------------------------|
A|-------------------------------------------------------------------------|
F|-------------------------------------------------------------------------|
C|--------------------0----------------------7-8-5-7---10-8-7----7---------|
G|-----8p7p0-10p8p0---0---8p7p0-10p8p0---5-8---------8--------10---8-10-7-8|
C|-00---------------0-0-0--------------0-----------------------------------|
pm ..               .   .              . . . . . . . .(gradually release pm)

Gtr 2
D|-------------------------------------------------------------------------|
A|-------------------------------------------------------------------------|
F|-------------------------------------------------------------------------|
C|--------------------0------------------8---8---8-8-8-8--7---7---7-7-7-7--|
G|-----8p7p0-10p8p0---0---8p7p0-10p8p0---8---8---8-8-8-8--7---7---7-7-7-7--|
C|-00---------------0-0-0--------------0-8---8---8-8-8-8--7---7---7-7-7-7--|
pm ..               .   .              .

Gtr 1
D|-------------------------------------------------------------------------|
A|-------------------------------------------------------------------------|
F|-------------------------------------------------------------------------|
C|--------------------0------------------8/10-8-7h8-7h8p7------------------|
G|-----8p7p0-10p8p0---0---8p7p0-10p8p0--------------------10-8-7h8---------|
C|-00---------------0-0-0--------------0-----------------------------------|
pm ..               .   .              .

Gtr 2
D|-------------------------------------------------------------------------|
A|-------------------------------------------------------------------------|
F|-------------------------------------------------------------------------|
C|--------------------0------------------8---8---8-8-8-8--10--10--10-10-10-|
G|-----8p7p0-10p8p0---0---8p7p0-10p8p0---8---8---8-8-8-8--10--10--10-10-10-|
C|-00---------------0-0-0--------------0-8---8---8-8-8-8--10--10--10-10-10-|
pm ..               .   .              .

Gtr 1
D|-------------------------------------------------------------------------|
A|-------------------------------------------------------------------------|
F|-------------------------------------------------------------------------|
C|--------------------0----------------------7-8-5-7------777~--333~-------|
G|-----8p7p0-10p8p0---0---8p7p0-10p8p0---5-8---------8----777~--333~-------|
C|-00---------------0-0-0--------------0------------------777~--333~-------|
pm ..               .   .              . . . . . . . .    ..    ..

Gtr 2
D|-------------------------------------------------------------------------|
A|-------------------------------------------------------------------------|
F|-------------------------------------------------------------------------|
C|--------------------0------------------8---8---8-8-8-8--777~--333~-------|
G|-----8p7p0-10p8p0---0---8p7p0-10p8p0---8---8---8-8-8-8--777~--333~-------|
C|-00---------------0-0-0--------------0-8---8---8-8-8-8--777~--333~-------|
pm ..               .   .              .                  ..    ..



Breakdown
Gtr 1
D|-----------------------------------|
A|-----------------------------------|
F|-----------------------------------|
C|-000-0-0-000-000---000-0-000-000---|
G|-000-0-0-000-000---000-0-000-000---|
C|-000-0-0-000-000---000-0-000-000---|
pm ... . . ... ...   ... . ... ...

Both Guitars 4x
D|-----------------------------------|
A|-----------------------------------|
F|-----------------------------------|
C|-000-0-0-000-000---000-0-000-000---|
G|-000-0-0-000-000---000-0-000-000---|
C|-000-0-0-000-000---000-0-000-000---|
pm ... . . ... ...   ... . ... ...

Gtr 1 4x
D|-------------------------------------------|
A|-------------------------------------------|
F|-------------------------------------------|
C|------7-8-5-7---10-8-7----7----------------|
G|--5-8---------8--------10---8-10-7-8-------|
C|-------------------------------------------|

Gtr 2 4x
D|-----------------------------------|
A|-----------------------------------|
F|-----------------------------------|
C|-000-0-0-000-000---000-0-000-000---|
G|-000-0-0-000-000---000-0-000-000---|
C|-000-0-0-000-000---000-0-000-000---|
pm ... . . ... ...   ... . ... ...


Pre-Chorus
Both Guitars
D|-------------------------------------------------------------------------|
A|-------------------------------------------------------------------------|
F|-------------------------------------------------------------------------|
C|-----------------------------------------------------------10-8-7--------|
G|------7---7h8---3---10-8-7-8-7-5------7---7h8---1---10-8-7---------------|
C|--0-0---0-----0---0---------------0-0---0-----0---0----------------------|
pm  . .   .     .   .               . .   .     .   .

D|-------------------------------------------------------------------------|
A|-------------------------------------------------------------------------|
F|-------------------------------------------------------------------------|
C|----------------------------------------------8--8---10--10-10-10--------|
G|------7---7h8---3---10-8-7-8-7-5------7---7h8-8--8---10--10-10-10--------|
C|--0-0---0-----0---0---------------0-0---0-----8--8---10--10-10-10--------|
pm  . .   .     .   .               . .   . 



Chorus
Both Guitars
D|-------------------------------------------------------------------------|
A|-------------------------------------------------------------------------|
F|-------------------------------------------------------------------------|
C|-8-------0-----------8-------0--------10---------------------------------|
G|-8-(16x)-0-(16x)-----8-(16x)-0-(8x)---10-(8x)----------------------------|
C|-8-------0-----------8-------0--------10---------------------------------|

Gtr 1
D|-------------------------------------------------------------------------|
A|-------------------------------------------------------------------------|
F|-------------------------------------------------------------------------|
C|-8-------0-----------8-------0--------10---------------------------------|
G|-8-(16x)-0-(16x)-----8-(16x)-0-(8x)---10-(8x)----------------------------|
C|-8-------0-----------8-------0--------10---------------------------------|

Gtr 2
D|-------------------------------------------------------------------------|
A|-------------------------------------------------------------------------|
F|-10-9-7--7/9/7/5/7---10-9-7--12-10-99/10---------------------------------|
C|-x--x-x--x/x/x/x/x---x--x-x--x--x--xx/x----------------------------------|
G|-8--7-5--5/7/5/3/5---8--7-5--10-8--77/8----------------------------------|
C|-------------------------------------------------------------------------|


Outro 2x
Gtr 1
D|---------|
A|---------|
F|---------|
C|-8~------|
G|-8~------|
C|-8~------|

Gtr 2
D|-------------------------------------------------------------------------|
A|-------------------------------------------------------------------------|
F|-------14-15-12-14----17-15-14----14-------------------------------------|
C|-12-15-------------15----------17----15-17-14-15-------------------------|
G|-------------------------------------------------------------------------|
C|-------------------------------------------------------------------------|

Gtr 1
D|---------|
A|---------|
F|---------|
C|-0~------|
G|-0~------|
C|-0~------|

Gtr 2
D|-------------------------------------------------------------------------|
A|-------------------------------------------------------------------------|
F|-------14-15-12-14----17-15-14----14-------------------------------------|
C|-12-15-------------15----------17----15-17-14-15-------------------------|
G|-------------------------------------------------------------------------|
C|-------------------------------------------------------------------------|

Gtr 1
D|---------|
A|---------|
F|---------|
C|-8~------|
G|-8~------|
C|-8~------|

Gtr 2
D|-------------------------------------------------------------------------|
A|-------------------------------------------------------------------------|
F|-------14-15-12-14----17-15-14----14-------------------------------------|
C|-12-15-------------15----------17----15-17-14-15-------------------------|
G|-------------------------------------------------------------------------|
C|-------------------------------------------------------------------------|

Gtr 1
D|---------|
A|---------|
F|---------|
C|-0~------|
G|-0~------|
C|-0~------|

Gtr 2
D|-------------------------------------------------------------------------|
A|-------------------------15----------------------------------------------|
F|-------14-15-12-14----17----17-15-14-15-14-12-14-------------------------|
C|-12-15-------------15----------------------------------------------------|
G|-------------------------------------------------------------------------|
C|-------------------------------------------------------------------------|

Gtr 1
D|---------|
A|---------|
F|---------|
C|-8~------|
G|-8~------|
C|-8~------|

Gtr 2
D|-------------------------------------------------------------------------|
A|-------------------------------------------------------------------------|
F|-------14-15-12-14----17-15-14----14-------------------------------------|
C|-12-15-------------15----------17----15-17-14-15-------------------------|
G|-------------------------------------------------------------------------|
C|-------------------------------------------------------------------------|

Gtr 1
D|---------|
A|---------|
F|---------|
C|-0~------|
G|-0~------|
C|-0~------|

Gtr 2
D|-------------------------------------------------------------------------|
A|-------------------------------------------------------------------------|
F|-------14-15-12-14----17-15-14----14-------------------------------------|
C|-12-15-------------15----------17----15-17-14-15-------------------------|
G|-------------------------------------------------------------------------|
C|-------------------------------------------------------------------------|

Gtr 1
D|---------|
A|---------|
F|---------|
C|-8~------|
G|-8~------|
C|-8~------|

Gtr 2
D|-------------------------------------------------------------------------|
A|-------------------------------------------------------------------------|
F|-------14-15-12-14----17-15-14----14-------------------------------------|
C|-12-15-------------15----------17----15-17-14-15-------------------------|
G|-------------------------------------------------------------------------|
C|-------------------------------------------------------------------------|

Gtr 1
D|-------------------------------------------------------------------------|
A|-------------------------------------------------------------------------|
F|-------------------------------------------------------------------------|
C|-0~----------------------10~---------------------------------------------|
G|-0~----------------------10~---------------------------------------------|
C|-0~----------------------10~---------------------------------------------|

Gtr 2
D|-------------------------------------------------------------------------|
A|-------------------------15----------------------------------------------|
F|-------14-15-12-14----17----17-15-14-15-14-12-14-------------------------|
C|-12-15-------------15----------------------------------------------------|
G|-------------------------------------------------------------------------|
C|-------------------------------------------------------------------------|

____________________________________________________________________________

Gtr 2 repeats those 4 bars throughout outro until fade out 

Gtr 1 then plays chorus through fade out
D|-------------------------------------------------------------------------|
A|-------------------------------------------------------------------------|
F|-------------------------------------------------------------------------|
C|-8-------0-----------8-------0--------10---------------------------------|
G|-8-(16x)-0-(16x)-----8-(16x)-0-(8x)---10-(8x)----------------------------|
C|-8-------0-----------8-------0--------10---------------------------------|

Gtr 3 comes in with original Gtr 2 part of chorus through fade out
D|-------------------------------------------------------------------------|
A|-------------------------------------------------------------------------|
F|-10-9-7--7/9/7/5/7---10-9-7--12-10-99/10---------------------------------|
C|-x--x-x--x/x/x/x/x---x--x-x--x--x--xx/x----------------------------------|
G|-8--7-5--5/7/5/3/5---8--7-5--10-8--77/8----------------------------------|
C|-------------------------------------------------------------------------|

That's all of it...im an ok guitarist and can play this song and again, this is
100%...ive listened over and over again

            
            
Suggest correction
Creating personal tab
Creating personal tab
You can edit any tab online and save it as your Personal.

You can edit, replace or remove any tab part or add personal notes – all changes will be seen only by you.

Personal tabs can be accessed anytime from any device, even offline.
Learn more »
Give kudos to tab author, rate the tab!
1 2 3 4 5
comments
print report bad tab
5 comments total. Showing first comments.
0 reply
cheez1492 685 Dec 01, 2007 09:37 AM

great job man
you didn't change much from the other tab tho

0 reply
atreyunderworld 31 May 11, 2008 04:33 PM

insane tab!
and very good song!

0 reply
fallenskater488 16 Jun 17, 2008 06:15 PM

dude its not 100%, dumbass.

guest
You may want to rate the tab now too:
select rating
Wanna post a correction for this tab? Suggest correction