Oops, an error
Loading. Please wait.

Morning Waits bass

version 1
version 1

Whole song

Interactive

1,527 views 1 this week
1 commentread comment
1 2 3 4 5
1 last vote to show rating
add to favorites
×
Save as Personal and add changes to this tab that will be seen only by you. Learn more ›
×
You can save this tab as Personal to edit and correct it or add notes. All changes will be seen only by you. Learn more »
launch autoscroll
font size
0
reset
guitar tuner
edit
Autoscroll
slow
fast
+/-
esc
set tempo
stop
Author
  Drop C-

  Intro
||-----------------------------------------------------------------|
||-----------------------------------------------------------------|
||-----------------------------------------------------------------|
||-0-0-0-0-0-0-0-0-0-0-0-0-0-0-0-0-0-0-0-0-0-0-0-0-0-0-0-0-0-0-0-0-|

||---------------------------------------------------------------------------------|
||---------------------------------------------------------------------------------|
||---------------------------------------------------------------------------------|
||-8-8-8-8-8-8-8-8-8-8-8-8-8-8-8-8-10-10-10-10-10-10-10-10-10-10-10-10-10-10-10-10-| x2

  Vers I
||-----------------------------------------------------------------|
||-----------------------------------------------------------------|
||-----------------------------------------------------------------|
||-7-----------------------------------------------0-------3-------| x2

||-----------------------------------------------------------------|
||-----------------------------------------------------------------|
||-----------------------------------------------------------------|
||-7-7-7-7-7-7-7-7-7-7-7-7-7-7-7-7-7-7-7-7-7-7-7-7-0-0-0-0-3-3-3-3-| x2

  Vers II
||-----------------------------------------------------------------|
||-----------------------------------------------------------------|
||-----------------------------------------------------------------|
||-777777777777777777777777777777777777777777777770000000033333333- x4

  Vers III
||---------------------------------------------------------------------|
||---------------------------------------------------------------------|
||---------------------------------------------------------------------|
||-7----------------5----------------0----------------3--------10----5-|

||-----------------------------------------------------------------|
||-----------------------------------------------------------------|
||-----------------------------------------------------------------|
||-7-7-7--7-7--7--77777-77777--5-5-5--5-5--5--55555-55555----------|

||-----------------------------------------------------------------|
||-----------------------------------------------------------------|
||-----------------------------------------------------------------|
||-0-0-0--0-0--0--00000-00000--3-3-3--3-3--3--1010101010-55555-----|

||-----------------------------------------------------------------|
||-----------------------------------------------------------------|
||-----------------------------------------------------------------|
||-7-7-7--7-7--7--77777-77777--5-5-5--5-5--5--55555-55555----------|

||-----------------------------------------------------------------|
||-----------------------------------------------------------------|
||-----------------------------------------------------------------|
||-0-0-0--0-0--0--00000-00000--8-8-8--8-8--8--1010101010-55555-----|

  Repeat Intro

  Repeat Vers I

  Repeat Vers II

  Repeat Vers III

||-----------------------------------------------------------------|
||-----------------------------------------------------------------|
||-----------------------------------------------------------------|
||-0-----------------------------0---------------------------------| x2

||-----------------------------------------------------------------|
||-----------------------------------------------------------------|
||-----------------------------------------------------------------|
||-8-----------------------------10--------------------------------|

||--------------------------------------------------------------|
||--------------------------------------------------------------|
||--------------------------------------------------------------|
||-000-000-000-000-000000000-000-000-000-000-000000000----------|

||--------------------------------------------------------------------------|
||--------------------------------------------------------------------------|
||--------------------------------------------------------------------------|
||-888-888-888-888-888888888-101010-101010-101010-101010-101010101010101010-|

            
            
Suggest correction
Creating personal tab
Creating personal tab
You can edit any tab online and save it as your Personal.

You can edit, replace or remove any tab part or add personal notes – all changes will be seen only by you.

Personal tabs can be accessed anytime from any device, even offline.
Learn more »
Give kudos to tab author, rate the tab!
1 2 3 4 5
comments
print report bad tab
1 comment total.
0 reply
MetalBassist93 345 Jan 20, 2007 11:37 AM

Great job on the tab :)
*5 stars*
Go AILD!

guest
You may want to rate the tab now too:
select rating
Wanna post a correction for this tab? Suggest correction