Oops, an error
Loading. Please wait.

Morning Waits tab

version 2
version 2

Whole song

Interactive

2,190 views 1 this week
2 commentsread comments
1 2 3 4 5
2 more votes to show rating
add to favorites
×
Save as Personal and add changes to this tab that will be seen only by you. Learn more ›
×
You can save this tab as Personal to edit and correct it or add notes. All changes will be seen only by you. Learn more »
launch autoscroll
font size
0
reset
how to read this tab
guitar tuner
edit
Autoscroll
slow
fast
+/-
esc
set tempo
stop
-----------------------------------------------------------------------------
                             Morning Waits - As I Lay Dying
-----------------------------------------------------------------------------
Tabbed by: Scottie Laubacher
Email: GibsonSG3@verizon.net

Tuning: Drop C

| /  slide up
| \  slide down
| h  hammer-on
| p  pull-off
| *  harmonic

Intro
D|-------------------------------|
A|-------------------------------|
F|----7-7-----------7-10p9-------|
C|0h7--7-7-0h7---0h7-7-----10/12-|
G|-------------------------------|
C|-------------------------------|


D|------------------------------|
A|------------------------------|
F|---7-7-----------7-10/12-10\9-|
C|0h7-7-7-0h7---0h7-7-----------|
G|------------------------------|
C|------------------------------|

0:11
D|----------------------------------------|
A|----------------------------------------|
F|----------------------------------------|
C|----12-----12---12-----12---15\14-------|
G|000----000---------000------------15/17-|
C|000----000----0----000----0-------------|


D|----------------------------------------|
A|----------------------------------------|
F|----------------------------------------|
C|----12-----12---12-----12---15h17p15\14-|
G|000----000---------000------------------|
C|000----000----0----000----0-------------|

0:22 (play this through the verse)
D|-----------------------------------|
A|-----------------------------------|
F|-----------------------------------|
C|---10---9---10---7---10p9---10---7-|
G|-----------------------------------|
C|00----0---0----0---0------0----0---|

D|-----------------------------------|
A|-----------------------------------|
F|-----------------------------------|
C|---10---9---10---7---10p9---5---7--|
G|-----------------------------------|
C|00----0---0----0---0------0----0---|

0:44 (really fast)
D|--------------------------------------------------------|
A|--------------------------------------------------------|
F|--------------------------------------------------------|
C|--------------------------------------------------------|
G|12p000-15p000-14p000-10p000-12p000-15p000-14p000-17p000-|
C|--------------------------------------------------------|

D|-----------------------------------------------------|
A|-----------------------------------------------------|
F|-----------------------------------------------------|
C|-----------------------------------------------------|
G|12p000-15p000-14p000-10p000-8p000-7p000-8p000-10p000-|
C|-----------------------------------------------------|

1:06
D|--------------------------------|
A|--5-----------------------------|
F|0---5p0-7-5-4-0-0-7-5p0-5-4-2-0-|
C|--------------------------------|
G|--------------------------------|
C|--------------------------------|

On the fourth time you play that riff play this for the second half of it
D|-------------|
A|----8--------|
F|0/7---7p0-7*-|
C|-------------|
G|-------------|
C|-------------|

1:39
D|---------------------------------|
A|---------------------------------|
F|---------------------------------|
C|---------------------------------|
G|---5----5---5----5-5---8p7-------|
C|00---00---0---00-----0-----10/12-|

D|--------------------------------|
A|--------------------------------|
F|--------------------------------|
C|--------------------------------|
G|---5----5---5----5-5---8h10p8\7-|
C|00---00---0---00-----0----------|

then it does the verse riff again at 2:01

then the really fast picking at 2:12

at 2:23 it does the sweet little riff that they played at 1:06

2:45 (let it ring)
D|-----|
A|-----|
F|-----|
C|0~---|
G|0~---|
C|0~---|

2:50
D|-----------------------------------------|
A|-----------------------------------------|
F|--9h10---10h12---12---14p12---12p10---10-|
C|0------0-------0----0-------0-------0----|
G|-----------------------------------------|
C|-----------------------------------------|

play that riff until the fade out and thats the end of the song




            
            
Suggest correction
Creating personal tab
Creating personal tab
You can edit any tab online and save it as your Personal.

You can edit, replace or remove any tab part or add personal notes – all changes will be seen only by you.

Personal tabs can be accessed anytime from any device, even offline.
Learn more »
Give kudos to tab author, rate the tab!
1 2 3 4 5
comments
print report bad tab
2 comments total.
0 reply
guitarwannabe16 1,036 Dec 20, 2006 08:54 AM

Not bad. You got most of the notes right but they're hard to play the way you have them tabbed. And some other parts are incorrect. But overall not a bad job

0 reply
angels side 30 Feb 01, 2007 06:03 AM

you did a pretty good job with this tab. i think the riff at 1:06 is a little off though, other than that good job thanks.

guest
You may want to rate the tab now too:
select rating
Wanna post a correction for this tab? Suggest correction