Oops, an error
Loading. Please wait.
We have an official Nothing Left tab made by UG professional guitarists. Check out the tab »
×
5,432 views 1 this week
3 commentsread comments
1 2 3 4 5
x 3
add to favorites
×
Save as Personal and add changes to this tab that will be seen only by you. Learn more ›
×
You can save this tab as Personal to edit and correct it or add notes. All changes will be seen only by you. Learn more »
launch autoscroll
font size
0
reset
guitar tuner
backing track
0:00
0:00
edit
Autoscroll
slow
fast
+/-
esc
set tempo
stop
Author
Difficulty
As I Lay Dying - Nothing Left
Tabbed by: EthantheBassist
Tuning: Drop C
-You will probably notice that there are more notes for the Bass than there
should be. I just plain wanted more fun out of the song so I added some challenging 
but really fun parts so enjoy playing it, hope you like it! 
___________________________________________________________________________________
KEY:                |
#-#-# - Bass        |
#-#-# Chords        |
^ - Bend Note Up    |
{PS} - Pig Squeal   |
... - Note Fade Off |
(H) - Note Hold Off |
____________________|

Intro A
G|---------------------------|
D|---------------------------|
A|-----------------1-0-------|
E|-00----00--1-3-5-----5-1-3-|

G|-----------------------------|
D|-----------------------------|
A|-------------------1-0---0---|
E|-00-000-000--1-3-5-----5---1-|

Intro B
G|-----------------------|
D|-7-8-7-----------------|
A|-5-5-5-------1-0-------|
E|-------1-3-5-----5-1-3-|

G|---5-------------------|
D|-7---8-----------------|
A|-5-5-5-------1-0---0---|
E|-------1-3-5-----5---1-|

Verse 1A
G|-----------------------------------------------|
D|-7---------8---------7-------------------------|
A|---5-5-5-5---5-5-5-5---5-5-5-5-------1-0-------|
E|-------------------------------1-3-5-----5-1-3-|

G|-----------5--------------------------------------|
D|-7-------------------8----------------------------|
A|---5-5-5-5---5-5-5-5---5-5-5-5-------1-0----------|
E|-------------------------------1-3-5-----5-1-{PS}-|

G|-----------------------------------------------|
D|-7---------8---------7-------------------------|
A|---5-5-5-5---5-5-5-5---5-5-5-5-------1-0-------|
E|-------------------------------1-3-5-----5-1-3-|

G|-----------5---------------------------------------|
D|-7-------------------8-----------------------------|
A|---5-5-5-5---5-5-5-5---5-5-5-5-------1-0-----------|
E|-------------------------------1-3-5-----5-1-3-1...|

Pre-Chorus A 2x
G|------------------------------------------------|
D|------------------------------------------------|
A|------------------------------------------------|
E|-0000-0-0-0000-0-0-0000-0-0-7-000-5-000-7-000-8-|

Pre-Chorus B 2x
G|-------------------------------------|
D|-------------------------------------|
A|-------------------------------------|
E|-0000(H)-0-0-0000(H)-0-0-0000(H)-0-0-|

Verse 2A
G|-----------------------------------------------|
D|-7---------8---------7-------------------------|
A|---5-5-5-5---5-5-5-5---5-5-5-5-------1-0-------|
E|-------------------------------1-3-5-----5-1-3-|

G|-----------5-----------------------------------|
D|-7-------------------7-------------------------|
A|---5-5-5-5---5-5-5-5---5-5-5-5-------1-0---0---|
E|-------------------------------1-3-5-----5---3-|

Chorus 1A 2x
G|----------------------------------|
D|----------------------------------|
A|----------------------------------|
E|-0000-0-0-0000-0-0-0000-0-0-7-5-1-|

Pre-Chorus B 2x
G|-------------------------------------|
D|-------------------------------------|
A|-------------------------------------|
E|-0000(H)-0-0-0000(H)-0-0-0000(H)-0-0-|

Bridge 1A - Right at the Beginning of each LETTER above Zero, you strum.
G|--------------------------------------------------------------------------------|
D|--------------------------------------------------------------------------------|
A|--------LikeThoseGasping---ForTheirLastBreath-WeCannotHide---There'sNothingLeft-|
E|-000-00-------------000-00-------------000-00---------000-00--------------5-7-8-|

G|--------------------------------------------------------------------------------------|
D|--------------------------------------------------------------------------------------|
A|--------LikeThoseGasping---ForTheirLastBreath-WeCannotHide---There'sNothingLeft.......|
E|-000-00-------------000-00-------------000-00---------000-00--------------5-8-7-1-0...|

Resolution
G|---------------------------|
D|---------------------------|
A|---------------------------|
E|-0...0...0...0...0...0...0-|

Riff A
G|--------------------5-----------------------------|
D|-7--------8-----------7---------------------------|
A|-5-555-55-5-555-555-5-5---------------------------|
E|------------------------00-7-000-8-000-7-000-8-00-|

G|--------------------5------------------------------|
D|-7--------8-----------7--00-7-000-8-000-7-000-8-00-|
A|-5-555-55-5-555-555-5-5----------------------------|
E|---------------------------------------------------|

G|--------------------5-----------------------------|
D|-7--------8-----------7---------------------------|
A|-5-555-55-5-555-555-5-5---------------------------|
E|------------------------00-7-000-8-000-7-000-8-00-|

G|--------------------5------------------------------|
D|-7--------8-----------7--00-7-000-8-000-7-000-8-00-|
A|-5-555-55-5-555-555-5-5----------------------------|
E|---------------------------------------------------|

Transition to Guitar Solo
G|---------------------------------------------------------------------------|
D|---------------------------------------------------------------------------|
A|-00-7-000-8-000-7-000-8-000-7-000-8-000-7-000-8-000-7-000-8-000-7-000-8-00-|
E|---------------------------------------------------------------------------|

G|-----------------------------------14^|
D|-8-000-10-000-12-000-14-000-15-000----|
A|--------------------------------------|
E|--------------------------------------|

Verse 3A 2x
G|-----------------------------------------------|
D|-7---------8---------7-------------------------|
A|---5-5-5-5---5-5-5-5---5-5-5-5-------1-0-------|
E|-------------------------------1-3-5-----5-1-3-|

G|-----------5-----------------------------------|
D|-7-------------------7-------------------------|
A|---5-5-5-5---5-5-5-5---5-5-5-5-------1-0---0---|
E|-------------------------------1-3-5-----5---3-|

Ending - Right at the Beginning of each LETTER above Zero, you strum.
G|--------------------------------------------------------------------------------|
D|--------------------------------------------------------------------------------|
A|--------LikeThoseGasping---ForTheirLastBreath-WeCannotHide---There'sNothingLeft-|
E|-000-00-------------000-00-------------000-00---------000-00--------------5-7-8-|

G|--------------------------------------------------------------------------------------|
D|--------------------------------------------------------------------------------------|
A|--------LikeThoseGasping---ForTheirLastBreath-WeCannotHide---There'sNothingLeft.......|
E|-000-00-------------000-00-------------000-00---------000-00--------------5-8-7-1-0...|

            
            
Suggest correction
Creating personal tab
Creating personal tab
You can edit any tab online and save it as your Personal.

You can edit, replace or remove any tab part or add personal notes – all changes will be seen only by you.

Personal tabs can be accessed anytime from any device, even offline.
Learn more »
Give kudos to tab author, rate the tab!
1 2 3 4 5
comments
print report bad tab
3 comments total.
-1 reply
Maggot-4-life 10 Jul 13, 2010 02:11 PM

is this a joke? I can hardly even read this.

0 reply
happygoth 10 Oct 26, 2010 05:04 PM

i dont know what your reading cause i can read this perfectly fine.

though EthantheBassist i think that they play at least this song in Drop C not standard tuning.

0 reply
coolboy17 52 Nov 21, 2011 04:14 PM

happy goth it's 100% not played in normal it's either drop d like the sound of truth or c standard like some of there other work

guest
You may want to rate the tab now too:
select rating
Wanna post a correction for this tab? Suggest correction