Oops, an error
Loading. Please wait.

No Way Out tab

760 views 15 this week
no commentswrite comment
1 2 3 4 5
1 last vote to show rating
add to favorites
×
Save as Personal and add changes to this tab that will be seen only by you. Learn more ›
×
You can save this tab as Personal to edit and correct it or add notes. All changes will be seen only by you. Learn more »
launch autoscroll
font size
0
reset
how to read this tab
guitar tuner
edit
Autoscroll
slow
fast
+/-
esc
set tempo
stop
Guitar 1 - Andy Westhead
Guitar 2 - Ben Biss

[Verse 1]
(Clean Riff)
(Guitar 1)
"Inside as the rain came pouring down..."
D|---------------------------|-----------------------------|------------------------------|
A|------------10-------------|--------------8--------------|--------------13--------------|
F|--------10------10-----10--|----------10-----10------10--|----------10------10------10--|
C|--8--8--------------8------|--10--10-------------10------|--12--12--------------12------|
G|---------------------------|-----------------------------|------------------------------|
C|---------------------------|-----------------------------|------------------------------|

D|----------------------------------|
A|--------------13------------------|
F|----------10------10--10------10--|
C|--12--12------------------12------|
G|----------------------------------|
C|----------------------------------|

"It can't wash away all this hurt that haunts me now..."
D|---------------------------|-----------------------------|----------------------------------|
A|------------10-------------|--------------8--------------|--------------13--------------13--|
F|--------10------10-----10--|----------10-----10------10--|----------10------10------10--10--|
C|--8--8--------------8------|--10--10-------------10------|--12--12--------------12------12--|
G|---------------------------|-----------------------------|----------------------------------|
C|---------------------------|-----------------------------|----------------------------------|

[Verse 1 Part 2]
(Chords)
(Both Guitars)(x4)
"Inside as the rain came pouring down..."
D|--------------------------------------------------------------------------------------------------------|
A|--------------------------------------------------------------------------------------------------------|
F|--3--3--3--3--3--3--3-----5--5--5--5--5--5--5-----7--7--7--7--7--7--7-----7--7--7--7--7--7--7-----------|
C|--3--3--3--3--3--3--3-----5--5--5--5--5--5--5-----7--7--7--7--7--7--7-----7--7--7--7--7--7--7-----------|
G|--1--1--1--1--1--1--1-----3--3--3--3--3--3--3-----5--5--5--5--5--5--5-----5--5--5--5--5--5--5-----------|
C|--------------------------------------------------------------------------------------------------------|

[Transition]
(Clean Riff)
(Guitar 1)
D|------------------------------|
A|--------------13--------------|
F|------10----------10------10--|
C|--12------12----------12------|
G|------------------------------|
C|------------------------------|

[Chorus]
(Chords)
(Both Guitars)
(x2)
"I shut my eyes, but my world's still burning..."
D|--------------------------------------------------|(Each chord tabbed is played 4 times)
A|--------------------------------------------------|
F|-----------5--3--3--3--5--7--7--2--2--3--3--5--5--|
C|--3--3--3--5--3--3--3--5--7--7--2--2--3--3--5--5--|
G|--3--3--3--3--1--1--1--3--5--5--0--0--1--1--3--3--|
C|--3--3--3-----------------------------------------|

[Chorus Part 2]
(Riff)
(Guitar 1)
"I shut my eyes, but my world's still burning..."
D|---------20---------20---------20---------20-------------|
A|--17/18------17/18------17/18------17/18------17-17--15--|
F|---------------------------------------------------------|
C|---------------------------------------------------------|
G|---------------------------------------------------------|
C|---------------------------------------------------------|

D|---------20---------20---------20---------20-------------|
A|--17/18------17/18------17/18------17/18------17-17--18--|
F|---------------------------------------------------------|
C|---------------------------------------------------------|
G|---------------------------------------------------------|
C|---------------------------------------------------------|

D|---------20---------20---------20---------20-------------|
A|--17/18------17/18------17/18------17/18------17-17--15--|
F|---------------------------------------------------------|
C|---------------------------------------------------------|
G|---------------------------------------------------------|
C|---------------------------------------------------------|

D|---------20---------20----------------------------------|
A|--17/18------17/18------17/18--20-20-20-20-20-20-20-20--|
F|--------------------------------------------------------|
C|--------------------------------------------------------|
G|--------------------------------------------------------|
C|--------------------------------------------------------|

[Post-Chorus]
(Clean Riff)
(Guitar 1)
D|---------------------------|-----------------------------|----------------------------------|
A|------------10-------------|--------------8--------------|--------------13------------------|
F|--------10------10-----10--|----------10-----10------10--|----------10------10------10------|
C|--8--8--------------8------|--10--10-------------10------|--12--12--------------12------12--|
G|---------------------------|-----------------------------|----------------------------------|
C|---------------------------|-----------------------------|----------------------------------|

D|------------------------------|
A|----------13------------------|
F|------10------10--10------10--|
C|--12------------------12------|
G|------------------------------|
C|------------------------------|

[Verse 2]
(Clean Riff)
(Guitar 1)
"Choked up, but the pain came after all..."
D|--|--|----------------------------------|------------------------------|
A|--|--|--------------13------------------|----------13------------------|
F|--|--|----------10------10------10------|------10------10--10------10--|
C|--|--|--12--12--------------12------12--|--12------------------12------|
G|--|--|----------------------------------|------------------------------|
C|--|--|----------------------------------|------------------------------|

"I feel displaced in these once familiar walls..."
D|---------------------------|-----------------------------|------------------------------|
A|------------10-------------|--------------8--------------|--------------13--------------|
F|--------10------10-----10--|----------10-----10------10--|----------10------10------10--|
C|--8--8--------------8------|--10--10-------------10------|--12--12--------------12------|
G|---------------------------|-----------------------------|------------------------------|
C|---------------------------|-----------------------------|------------------------------|

D|----------------------------------|
A|--------------13------------------|
F|----------10------10--10------10--|
C|--12--12------------------12------|
G|----------------------------------|
C|----------------------------------|

[Verse 2 Part 2]
(Riff)
(Guitar 1)
(x2)
"Patient I fall with no end in sight..."
D|--8--8--8--8--8--8--8--8--3--3--3--3--5--5--5--5------------------------------------------------|
A|--6--6--6--6--6--6--6--6--6--6--6--6--6--6--6--6--5h6--6--6--6--6--6--6--5h6--6--6--6--6--6--6--|
F|--------------------------------------------------5-5--5--5--5--5--5--5--5-5--5--5--5--5--5--5--|
C|------------------------------------------------------------------------------------------------|
G|------------------------------------------------------------------------------------------------|
C|------------------------------------------------------------------------------------------------|

[Verse 2 Part 2]
(Palm Muted Chords)
(Guitar 1)
(x2)
"Patient I fall with no end in sight..."
D|--------------------------------------------------------------------------------------------------------|
A|--------------------------------------------------------------------------------------------------------|
F|--3--3--3--3--3--3--3-----5--5--5--5--5--5--5-----7--7--7--7--7--7--7-----7--7--7--7--7--7--7-----------|
C|--3--3--3--3--3--3--3-----5--5--5--5--5--5--5-----7--7--7--7--7--7--7-----7--7--7--7--7--7--7-----------|
G|--1--1--1--1--1--1--1-----3--3--3--3--3--3--3-----5--5--5--5--5--5--5-----5--5--5--5--5--5--5-----------|
C|--------------------------------------------------------------------------------------------------------|

[Chorus]
(Chords)
(Both Guitars)
(x2)
"I shut my eyes, but my world's still burning..."
D|--------------------------------------------------|(Each chord tabbed is played 4 times)
A|--------------------------------------------------|
F|-----------5--3--3--3--5--7--7--2--2--3--3--5--5--|
C|--3--3--3--5--3--3--3--5--7--7--2--2--3--3--5--5--|
G|--3--3--3--3--1--1--1--3--5--5--0--0--1--1--3--3--|
C|--3--3--3-----------------------------------------|

[Chorus Part 2]
(Riff)
(Guitar 1)
"I shut my eyes, but my world's still burning..."
D|---------20---------20---------20---------20-------------|
A|--17/18------17/18------17/18------17/18------17-17--15--|
F|---------------------------------------------------------|
C|---------------------------------------------------------|
G|---------------------------------------------------------|
C|---------------------------------------------------------|

D|---------20---------20---------20---------20-------------|
A|--17/18------17/18------17/18------17/18------17-17--18--|
F|---------------------------------------------------------|
C|---------------------------------------------------------|
G|---------------------------------------------------------|
C|---------------------------------------------------------|

D|---------20---------20---------20---------20-------------|
A|--17/18------17/18------17/18------17/18------17-17--15--|
F|---------------------------------------------------------|
C|---------------------------------------------------------|
G|---------------------------------------------------------|
C|---------------------------------------------------------|

D|---------20---------20----------------------------------|
A|--17/18------17/18------17/18--20-20-20-20-20-20-20-20--|
F|--------------------------------------------------------|
C|--------------------------------------------------------|
G|--------------------------------------------------------|
C|--------------------------------------------------------|


[Breakdown]
(Riff)
(Both Guitars)
(x8)
"And as I exhale out the pain..."
D|--------------------------------------------------|
A|--------------------------------------------------|
F|--------------------5--5--5-----------------------|
C|--3--3--3--0--0--0--5--5--5--0--0--0--5--5--5--5--|
G|--3--3--3--0--0--0--3--3--3--0--0--0--5--5--5--5--|
C|--3--3--3--0--0--0-----------0--0--0--5--5--5--5--|

[Transition]
(Clean Riff)
(Guitar 1)
"And I know that I fucked up..."
D|---------------------------|-----------------------------|----------------------------------|
A|------------10-------------|--------------8--------------|--------------13--------------13--|
F|--------10------10-----10--|----------10-----10------10--|----------10------10------10--10--|
C|--8--8--------------8------|--10--10-------------10------|--12--12--------------12------12--|
G|---------------------------|-----------------------------|----------------------------------|
C|---------------------------|-----------------------------|----------------------------------|

[Stripped Chorus]
(Chords)
(Guitar 2)
"I shut my eyes, but my world's still burning..."
D|--------------------------------------------------------------------------------|
A|--------------------------------------------------------------------------------|
F|----------3--3----7--7--2--2----3--3--3--3--3--3--3--3--5--5--5--5--5--5--5--5--|
C|--3--3----3--3----7--7--2--2----3--3--3--3--3--3--3--3--5--5--5--5--5--5--5--5--|
G|--3--3----1--1----5--5--0--0----1--1--1--1--1--1--1--1--3--3--3--3--3--3--3--3--|
C|--3--3--------------------------------------------------------------------------|

[Stripped Chorus]
(Riff)
(Guitar 1)
"I shut my eyes, but my world's still burning..."
D|----------13----------13----------13----------13----------13------|
A|------13----------13----------13----------13----------13------13--|
F|--10----------10----------10----------10----------10--------------|
C|------------------------------------------------------------------|
G|------------------------------------------------------------------|
C|------------------------------------------------------------------|

[Chorus]
(Chords)
(Both Guitars)
"I shut my eyes, but my world's still burning..."
D|--------------------------------------------------|(Each chord tabbed is played 4 times)
A|--------------------------------------------------|
F|-----------5--3--3--3--5--7--7--2--2--3--3--5--5--|
C|--3--3--3--5--3--3--3--5--7--7--2--2--3--3--5--5--|
G|--3--3--3--3--1--1--1--3--5--5--0--0--1--1--3--3--|
C|--3--3--3-----------------------------------------|

D|--------------------------|
A|--------------------------|
F|--7--7--2--2--3--3--5--5--|
C|--7--7--2--2--3--3--5--5--|
G|--5--5--0--0--1--1--3--3--|
C|--------------------------|

[Chorus]
(Riff)
(Guitar 1)
(x5)
"I shut my eyes, but my world's still burning..."
D|----------13----------13----------13----------13----------13------|
A|------13----------13----------13----------13----------13------13--|
F|--10----------10----------10----------10----------10--------------|
C|------------------------------------------------------------------|
G|------------------------------------------------------------------|
C|------------------------------------------------------------------|

[Breakdown]
(Riff)
(Both Guitars)
(x2)
D|--------------------------------------------------|
A|--------------------------------------------------|
F|--------------------5--5--5-----------------------|
C|--3--3--3--0--0--0--5--5--5--0--0--0--5--5--5--5--|
G|--3--3--3--0--0--0--3--3--3--0--0--0--5--5--5--5--|
C|--3--3--3--0--0--0-----------0--0--0--5--5--5--5--|

[End-On]
(Chord)
(Both Guitars)
D|-----|
A|-----|
F|-----|
C|--0--|
G|--0--|
C|--0--|

            
            
Suggest correction
Creating personal tab
Creating personal tab
You can edit any tab online and save it as your Personal.

You can edit, replace or remove any tab part or add personal notes – all changes will be seen only by you.

Personal tabs can be accessed anytime from any device, even offline.
Learn more »
Give kudos to tab author, rate the tab!
1 2 3 4 5
comments
print report bad tab
guest
You may want to rate the tab now too:
select rating
Wanna post a correction for this tab? Suggest correction