Oops, an error
Loading. Please wait.

Pretty Little Distance tab

2,407 views 51 this week
5 commentsread comments
1 2 3 4 5
x 5
add to favorites
×
Save as Personal and add changes to this tab that will be seen only by you. Learn more ›
×
You can save this tab as Personal to edit and correct it or add notes. All changes will be seen only by you. Learn more »
launch autoscroll
font size
0
reset
how to read this tab
guitar tuner
edit
Autoscroll
slow
fast
+/-
esc
set tempo
stop
Author
Difficulty
This is my tab of Pretty Little Distance by As It Is, the first track off their sophomore album 'Okay'

(I wrote the main riff slightly different than how Andy plays it in the video, but it just sounds closer to 
the recording and is easier once you get used to it. Thanks for learning this tab, comment with any questions)

UPDATE: I added the way Andy plays the parts in the video as "Alternative" options. Also changed the chorus
chords because I accidentally mistook the two guitar parts as one the first time I tabbed this.

[Intro]
(Guitar 1):
(You'll want to barre your first finger on the 7th fret for this part)
E|--------------------------------------------------------|
B|--------7--9-----------7--9--------------7--------------|
G|-----9--------------9--------------9-----------9--8--9--|
D|--------------------------------7-----7-----7-----------|
A|--7-----------------------------------------------------|
E|-----------------7--------------------------------------|

OR Alternative Method (How Andy plays in the video)
[Intro]
(Alternative Guitar 1):
E|-----0--2--4--------0--2--4--------0-----2-----0-------|
B|--------------------------------------------------4/5--|
G|--------------------------------2-----2-----2----------|
D|--2----------------------------------------------------|
A|-----------------2-------------------------------------|
E|-------------------------------------------------------|

[Verse Rhythm Part 1]
(Guitar 2):
(The second chord of the second part is not a mistake)
E|-----------------------|-----------------------------------|
B|-----------------------|--------4--4-----------------------|
G|--------4--4-----2--2--|--------4--4-----2--2--------------|
D|--2-----4--4-----2--2--|--2-----2--2-----2--2-----6/7\6----|
A|--2-----2--2-----0--0--|--2-----2--2-----0--0-----x-x-x----|
E|--0--------------------|--0-----------------------4/5\4----|

[Verse Rhythm Part 2]
(Guitar 2):
E|-----------------------|--------------------------------------------------|
B|-----------------------|--------------------------------------------------|
G|--------4--4-----2--2--|--------------------------------------------------|
D|--2-----4--4-----2--2--|--4--4-----4--4-----4--4-----7--7--7--7--7--7--7--|
A|--2-----2--2-----0--0--|--4--4-----4--4-----4--4-----7--7--7--7--7--7--7--|
E|--0--------------------|--2--2-----2--2-----2--2-----5--5--5--5--5--5--5--|

[Verse Lead]
(Guitar 1):
(Play the second part after playing the first part 3 times)
E|--------------------------------------------------------|-----------------------------------------------|
B|--------7--9-----------7--9--------------7--------------|-----------7-----------------------9-----------|
G|-----9--------------9--------------9-----------9--8--9--|-----9--------9-----9--------9--------9-----9--|
D|--------------------------------7-----7-----7-----------|--9-----9--------9--------7-----7--------7-----|
A|--7-----------------------------------------------------|-----------------------------------------------|
E|-----------------7--------------------------------------|-----------------------------------------------|

(Alternative Method: Last measure)
E|-----0-----2--0-----0--|-----0-----4--0-----0--|
B|--0-----0--------0-----|-----------------------|
G|-----------------------|--2-----2--------2-----|
D|-----------------------|-----------------------|
A|-----------------------|-----------------------|
E|-----------------------|-----------------------|

[Chorus Chords]
(Guitar 2):
E|----------------------|--------------------------|
B|----------------------|--------------------------|
G|---------4--4---6--6--|--------------------------|
D|--2--2---4--4---6--6--|--6--6-----7--7-----9--9--|
A|--2--2---2--2---4--4--|--6--6-----7--7-----9--9--|
E|--0--0----------------|--4--4-----5--5-----7--7--|

[Chorus Part 1 Riff]
(Guitar 1):
E|--------------------------|------------------------------|
B|--------------------------|------------------------------|
G|--9--9-----8--8-----9--9--|--13--13-----9--9-----11--11--|
D|--x--x-----x--x-----x--x--|--x---x------x--x-----x---x---|
A|--7--7-----6--6-----7--7--|--11--11-----7--7-----9---9---|
E|--------------------------|------------------------------|

[Chorus Part 2 Riff]
(Guitar 1):
E|--12------|--11------|
B|------12--|------12--|(Repeat the first part 6 times, and the second one 2 times)
G|----------|----------|
D|----------|----------|
A|----------|----------|
E|----------|----------|

[Bridge Chords]
(Both Guitars):
E|-----------------------|
B|-----------------------|
G|--------------6-----4--|
D|--4-----7-----6-----4--|
A|--4-----7-----4-----2--|
E|--2-----5--------------|

[Solo Part 1]
(Guitar 1):
E|------------------------------------------------|-------------------|
B|--5--5--5--5--5--5--5--5--5--5--5--5-5/4--2--0--|----------2-----4--|
G|------------------------------------------------|--1/2--------2--4--|
D|------------------------------------------------|-------2-----------|
A|------------------------------------------------|-------------------|
E|------------------------------------------------|-------------------|

[Solo Part 2]
(Guitar 1):
E|--4--5--7--|--12--11------12--11------12--11------12--11------|-----------7--------|
B|-----------|----------12----------12----------12----------12--|--5--7--9-----9--7--|
G|-----------|--------------------------------------------------|--------------------|
D|-----------|--------------------------------------------------|--------------------|
A|-----------|--------------------------------------------------|--------------------|
E|-----------|--------------------------------------------------|--------------------|

(Guitar 2 plays Chorus Chords during solo)

[Clean Breakdown]
(Guitar 1):
E|--4-----2-----0-----0-----0-----0--|--4-----0-----2--|
B|-----0-----0-----0-----0-----0-----|-----0-----0-----|
G|-----------------------------------|-----------------|
D|-----------------------------------|-----------------|
A|-----------------------------------|-----------------|
E|-----------------------------------------------------|

[Breakdown Chords]
(Guitar 2):
E|---------------------------------------------|--------------------------------------------------|
B|---------------------------------------------|--------------------------------------------------|
G|---------------------------------------------|--------------------------------------------------|
D|--9--9--9--8--8--8--6--6--6--6--6--6--6--6--6|--------------------------------------------------|
A|--7--7--7--6--6--6--4--4--4--4--4--4--4--4--4|--6--6--6--7--7--7--9--9--9--9--9--9--9--9--9--9--|
E|---------------------------------------------|--4--4--4--5--5--5--7--7--7--7--7--7--7--7--7--7--|



/ - slide up
\ - slide down
x - muted, struck string

            
            
Suggest correction
Creating personal tab
Creating personal tab
You can edit any tab online and save it as your Personal.

You can edit, replace or remove any tab part or add personal notes – all changes will be seen only by you.

Personal tabs can be accessed anytime from any device, even offline.
Learn more »
comments
print report bad tab
5 comments total. Showing first comments.
0 reply
I_M_3rd 44 Dec 26, 2016 03:43 PM

It reads right. I'll double check it later on guitar.

+1 reply
Nitfold116 10 Jan 13, 2017 08:27 AM

Mhhh..i think it's a good tab but each songs from AS IT IS is drop D, so i suppose this is in drop D too..

0 reply
Blink182Bouncer 1,150 Jan 13, 2017 06:08 PM

Every song by As It Is is performed in Drop D however I know they recorded Winter's Weather in DADGAD and Bitter, Broken Me in Standard.

However Guitar 2 uses a low D# chord in the chorus on the recording I figured it was to insignificant of a detail to tab out considering how Guitar 1 is in Standard anyways.

guest
You may want to rate the tab now too:
select rating
Wanna post a correction for this tab? Suggest correction