Oops, an error
Loading. Please wait.

Still Remembering tab

version 1
version 1

Whole song

  • Tab for Still Remembering by As It Is. The intro is tabbed as 2 guitar parts.
  • Capo on 8th fret, Standard Tuning. Contains double... Show more
  • Easy to read and put to the song https://www.youtube.com/watch?v=sMwnwddE4vU.
2,272 views 33 this week
no commentswrite comment
1 2 3 4 5
x 4
add to favorites
×
Save as Personal and add changes to this tab that will be seen only by you. Learn more ›
×
You can save this tab as Personal to edit and correct it or add notes. All changes will be seen only by you. Learn more »
launch autoscroll
font size
0
reset
how to read this tab
guitar tuner
edit
Autoscroll
slow
fast
+/-
esc
set tempo
stop
About this tab version
Tab for Still Remembering by As It Is. The intro is tabbed as 2 guitar parts. Was this info helpful? Yes No
Tab for "Still Remembering" off As It Is' Sophomore Album "okay."

Note: There is a possibility the intro is just one guitar, fingerpicked, but they don't play it that way live
so I assume that's hard and unnecessary for them.

Guitar 1 - Andy Westhead
Guitar 2 - Ben Biss

Guitar 3 - Andy Westhead (Overdubbed)

[Intro/Verse]Riff(Guitar 1)(x8):
D#|----------------------9---------------------------12-------------------12------|
A#|--10--------12-----------------9--------10------------10-----10------------10--|
F#|------9---------9--------9--------9---------9--------------------9-------------|
C#|-----------------------------------------------0--------------------0----------|
G#|-------------------------------------------------------------------------------|
D#|-------------------------------------------------------------------------------|

[Intro/Verse]Walking Line(Guitar 2)(x8):
D#|---------------------------------------------------------------------------------|
A#|---------------------------------------------------------------------------------|
F#|---------------------------------------------------------------------------------|
C#|---------------------------------------------------------------------------------|
G#|--9-----9--11-----11--12-----12--7-----7--5----5--5-----5--5--5--5--5--5----5-5--|
D#|---------------------------------------------------------------------------------|

[Chorus]Chords(Both Guitars)(x2):
D#|--0--|--0--|--2--|--2--|--2--|--0--|--2--|--2--| (The rhythm is "1-2-and-3-and")
A#|--2--|--0--|--3--|--3--|--2--|--0--|--3--|--3--|
F#|--2--|--1--|--2--|--2--|--2--|--1--|--2--|--2--|
C#|--2--|--2--|--0--|--0--|--4--|--2--|--0--|--0--|
G#|--0--|--2--|-----|-----|--4--|--2--|-----|-----|
D#|-----|--0--|-----|-----|--2--|--0--|-----|-----|

[Post-Chorus]Leads(Guitar 3):
D#|----------------------------------------------------------|
A#|----------------------------------------------------------|
F#|----------------------------------------------------------|
C#|--9/11--11--11-----9--9h11-----7--7--9--9/11-----9--7--7--|
G#|----------------------------------------------------------|
D#|----------------------------------------------------------|

[Post-Chorus/Verse]Riff(Guitar 1)(x8)):
D#|----------------------9---------------------------12-------------------12------|
A#|--10--------12-----------------9--------10------------10-----10------------10--|
F#|------9---------9--------9--------9---------9--------------------9-------------|
C#|-----------------------------------------------0--------------------0----------|
G#|-------------------------------------------------------------------------------|
D#|-------------------------------------------------------------------------------|

[Post-Chorus/Verse]Walking Line(Guitar 2)(x8):
D#|------------------------------------------------------------------------|
A#|------------------------------------------------------------------------|
F#|------------------------------------------------------------------------|
C#|------------------------------------------------------------------------|
G#|--9-----9--11-----11--12-----12--7-----7--5-----5--5-----5--5-----5--5--|
D#|------------------------------------------------------------------------|

[Chorus]Chords(Both Guitars)(x2):
D#|--0--|--0--|--2--|--2--|--2--|--0--|--2--|--2--| (The rhythm is "1-2-and-3-and" repeated 4 times per chord)
A#|--2--|--0--|--3--|--3--|--2--|--0--|--3--|--3--|
F#|--2--|--1--|--2--|--2--|--2--|--1--|--2--|--2--|
C#|--2--|--2--|--0--|--0--|--4--|--2--|--0--|--0--|
G#|--0--|--2--|-----|-----|--4--|--2--|-----|-----|
D#|-----|--0--|-----|-----|--2--|--0--|-----|-----|


[Bridge]Chords(Guitar 2)(x4):(The rhythm is "1-2-and-3-and" repeated 4 times per chord)
D#|--0--|--2--|
A#|--2--|--3--|
F#|--2--|--2--|
C#|--2--|--0--|
G#|--0--|-----|
D#|-----|-----|

[Bridge]Riff(Guitar 1)9:
D#|------12------10--------------17----------------------17----------|
A#|--14------12------14--15--17------17--15--14--15--17------17--15--|
F#|------------------------------------------------------------------|
C#|------------------------------------------------------------------|
G#|------------------------------------------------------------------|
D#|------------------------------------------------------------------|

[Breakdown]Riff(Guitar 1):
D#|----------------------9---------------------------12-------------------12------|
A#|--10--------12-----------------9--------10------------10-----10------------10--|
F#|------9---------9--------9--------9---------9--------------------9-------------|
C#|-----------------------------------------------0--------------------0----------|
G#|-------------------------------------------------------------------------------|
D#|-------------------------------------------------------------------------------|

[Breakdown]Walking Line(Guitar 2):
D#|------------------------------------------------------------------------|
A#|------------------------------------------------------------------------|
F#|------------------------------------------------------------------------|
C#|------------------------------------------------------------------------|
G#|--9-----9--11-----11--12-----12--7-----7--5-----5--5-----5--5-----5--5--|
D#|------------------------------------------------------------------------|

[Chorus]Chords(Both Guitars(x2)):
D#|--0--|--0--|--2--|--2--|--2--|--0--|--2--|--2--| (The rhythm is "1-2-and-3-and" repeated 4 times per chord)
A#|--2--|--0--|--3--|--3--|--2--|--0--|--3--|--3--|
F#|--2--|--1--|--2--|--2--|--2--|--1--|--2--|--2--|
C#|--2--|--2--|--0--|--0--|--4--|--2--|--0--|--0--|
G#|--0--|--2--|-----|-----|--4--|--2--|-----|-----|
D#|-----|--0--|-----|-----|--2--|--0--|-----|-----|

[Outro]Riff(Guitar 1):
D#|----------------------9---------------------------12-------------------12------|
A#|--10--------12-----------------9--------10------------10-----10------------10--|
F#|------9---------9--------9--------9---------9--------------------9-------------|
C#|-----------------------------------------------0--------------------0----------|
G#|-------------------------------------------------------------------------------|
D#|-------------------------------------------------------------------------------|

[Outro]Walking Line(Guitar 2):
D#|------------------------------------------------------------------------|
A#|------------------------------------------------------------------------|
F#|------------------------------------------------------------------------|
C#|------------------------------------------------------------------------|
G#|--9-----9--11-----11--12-----12--7-----7--5-----5--5-----5--5-----5--5--|
D#|------------------------------------------------------------------------|

**************
/ Slide Up
h Hammer-on
**************

            
            
Suggest correction
Creating personal tab
Creating personal tab
You can edit any tab online and save it as your Personal.

You can edit, replace or remove any tab part or add personal notes – all changes will be seen only by you.

Personal tabs can be accessed anytime from any device, even offline.
Learn more »
comments
print report bad tab
guest
You may want to rate the tab now too:
select rating
Wanna post a correction for this tab? Suggest correction