Oops, an error
Loading. Please wait.

The Coast Is Where Home Is tab

901 views 3 this week
no commentswrite comment
1 2 3 4 5
2 more votes to show rating
add to favorites
×
Save as Personal and add changes to this tab that will be seen only by you. Learn more ›
×
You can save this tab as Personal to edit and correct it or add notes. All changes will be seen only by you. Learn more »
launch autoscroll
font size
0
reset
how to read this tab
guitar tuner
edit
Autoscroll
slow
fast
+/-
esc
set tempo
stop
Author
Difficulty
Guitar 1 - Andy Westhead
Guitar 2 - Ben Biss

[Intro]
(Clean Guitar w/Delay)
(Guitar 1)
E|--------------7--7--------|--------------7--7--------|--------------------------|--------------------------|
B|--------------------------|--------------------------|--------------9--9--------|--------------7--7--------|
G|--------9--9--------9--9--|--------9--9--------9--9--|--------9--9--------9--9--|--------9--9--------9--9--|
D|--7--7--------------------|--7--7--------------------|--------------------------|--9--9--------------------|
A|--------------------------|--------------------------|--7--7--------------------|--------------------------|
E|--------------------------|--------------------------|--------------------------|--------------------------|

[Intro Continued]
(Clean Guitar w/Delay)
(Guitar 1)
E|--------------7--7--------|--------------7--7--------|--------------------------|--------------------------|
B|--------------------------|--------------------------|--------------9--9--------|--------------7--7--------|
G|--------9--9--------9--9--|--------9--9--------9--9--|--------9--9--------9--9--|--------9--9--------9--9--|
D|--7--7--------------------|--7--7--------------------|--------------------------|--------------------------|
A|--------------------------|--------------------------|--------------------------|--------------------------|
E|--------------------------|--------------------------|--9--9--------------------|--7--7--------------------|

[Verse]
(Rhythm)
(Guitar 2)
"Lonely, forgotten days, the city lights..."
E|----------------------------------------------------------|
B|----------------------------------------------------------|
G|--2--2-----4--4-----2--2-----4--4-----6--6-----8/9--------|
D|--2--2-----4--4-----2--2-----4--4-----6--6-----x-x--------|
A|--0--0-----2--2-----0--0-----2--2-----4--4-----6/7--------|
E|----------------------------------------------------------|

[Verse]
(Leads)
(Guitar 1)
"Lonely, forgotten days, the city lights..."
E|--------------------------------------------------------------------------------------------------------|
B|--12-----12-----12-----12-----12-----12-----12-----12-----7-----7-----7-----7-----7-----7-----7-----7---|
G|------9------9------9------9------9------9------9------9-----9-----9-----9-----9-----9-----9-----9-----9|
D|--------------------------------------------------------------------------------------------------------|
A|--------------------------------------------------------------------------------------------------------|
E|--------------------------------------------------------------------------------------------------------|

[Chorus]
(Rhythms)
(Both Guitars)
"Years passed with these streets"
E|--------------------------------------------------------------|
B|--------------------------------------------------------------|
G|--2--2--2--2--2--2--2--2--2--2-----------------4--4--4--4--4--|
D|--2--2--2--2--2--2--2--2--2--2--2--2--2--2--2--4--4--4--4--4--|
A|--0--0--0--0--0--0--0--0--0--0--2--2--2--2--2--2--2--2--2--2--|
E|--------------------------------0--0--0--0--0-----------------|

E|--------------------------------------------------------------|
B|--------------------------------------------------------------|
G|--2--2--2--2--2--2--2--2--2--2--6--6--6--6--6--4--4--4--4--4--|
D|--2--2--2--2--2--2--2--2--2--2--6--6--6--6--6--4--4--4--4--4--|
A|--0--0--0--0--0--0--0--0--0--0--4--4--4--4--4--2--2--2--2--2--|
E|--------------------------------------------------------------|

[Post-Chorus]
(Fill)
(Guitar 1)
(Just play this chord A LOT)
E|-----|
B|-----|
G|--9--|
D|--x--|
A|--7--|
E|-----|

[Verse]
(Rhythm)
(Guitar 2)
"They closed the venue we first played..."
E|----------------------------------------------------------|
B|----------------------------------------------------------|
G|--2--2-----4--4-----2--2-----4--4-----6--6-----8/9--------|
D|--2--2-----4--4-----2--2-----4--4-----6--6-----x-x--------|
A|--0--0-----2--2-----0--0-----2--2-----4--4-----6/7--------|
E|----------------------------------------------------------|

[Verse]
(Leads)
(Guitar 1)
"They closed the venue we first played..."
E|--------------------------------------------------------------------------------------------------------|
B|--12-----12-----12-----12-----12-----12-----12-----12-----7-----7-----7-----7-----7-----7-----7-----7---|
G|------9------9------9------9------9------9------9------9-----9-----9-----9-----9-----9-----9-----9-----9|
D|--------------------------------------------------------------------------------------------------------|
A|--------------------------------------------------------------------------------------------------------|
E|--------------------------------------------------------------------------------------------------------|

[Pre-Chorus]
(Rhythms)
(Guitar 2)
"If nothing else..."
E|-----------------------|
B|-----------------------|
G|--4-----6-----2-----2--|
D|--4-----6-----2-----2--|
A|--2-----4-----0-----0--|
E|-----------------------|

[Pre-Chorus]
(Leads)
(Guitar 2)
"If nothing else..."
E|--------|--------------|-----------|--19--|
B|--------|-----7--------|--9--------|------|
G|--9-----|--------9-----|-----9-----|------|
D|-----9--|-----------9--|--------9--|------|
A|--------|--------------|-----------|------|
E|--------|--------------|-----------|------|

[Chorus]
(Rhythms)
(Both Guitars)
"Years passed with these streets"
E|--------------------------------------------------------------|
B|--------------------------------------------------------------|
G|--2--2--2--2--2--2--2--2--2--2-----------------4--4--4--4--4--|
D|--2--2--2--2--2--2--2--2--2--2--2--2--2--2--2--4--4--4--4--4--|
A|--0--0--0--0--0--0--0--0--0--0--2--2--2--2--2--2--2--2--2--2--|
E|--------------------------------0--0--0--0--0-----------------|

E|--------------------------------------------------------------|
B|--------------------------------------------------------------|
G|--2--2--2--2--2--2--2--2--2--2--6--6--6--6--6--4--4--4--4--4--|
D|--2--2--2--2--2--2--2--2--2--2--6--6--6--6--6--4--4--4--4--4--|
A|--0--0--0--0--0--0--0--0--0--0--4--4--4--4--4--2--2--2--2--2--|
E|--------------------------------------------------------------|

[Chorus Part 2]
(Leads)
(Guitar 1)
"Romance for past-tense..."
E|-----12--11--9--7h9p7-----------------------|--12--11--9--7h9p7---------------------|
B|--9--------------------9-------7----7/9-----|--------------------9-----7-----7h9p7--|
G|--------------------------9--9---9-------9--|-----------------------9-----9---------|
D|--------------------------------------------|---------------------------------------|
A|--------------------------------------------|---------------------------------------|
E|--------------------------------------------|---------------------------------------|

[Post-Chorus 2]
(Chord)
(Guitar 2)
E|-----|
B|--0--|
G|--2--|
D|--2--|
A|--0--|
E|-----|

[Bridge]
(Riff)
(Guitar 1)
(Just play this chord A LOT)
E|---------|
B|--12-----|
G|------9--|
D|---------|
A|---------|(Once again, just
E|---------| play this riff A LOT)
            
[Bridge]
(Chords)
(Palm-muted)
(Guitar 2)
"You can't change that nothing will stay the same..."
E|--------------|
B|--------------|
G|--2-----------|
D|--2-----2-----|
A|--0-----2-----|(Rhythm is in 8th Rhythms)
E|--------0-----|

[Breakdown]
(Clean Leads)
(Guitar 1)
"Still here but the feeling is gone"
E|--------0--2--|
B|--2--0--------|
G|--------------|
D|--------------|
A|--------------|
E|--------------|

[Chorus]
(Rhythms)
(Both Guitars)
"Years passed with these streets"
E|--------------------------------------------------------------|
B|--------------------------------------------------------------|
G|--2--2--2--2--2--2--2--2--2--2-----------------4--4--4--4--4--|
D|--2--2--2--2--2--2--2--2--2--2--2--2--2--2--2--4--4--4--4--4--|
A|--0--0--0--0--0--0--0--0--0--0--2--2--2--2--2--2--2--2--2--2--|
E|--------------------------------0--0--0--0--0-----------------|

E|--------------------------------------------------------------|
B|--------------------------------------------------------------|
G|--2--2--2--2--2--2--2--2--2--2--6--6--6--6--6--4--4--4--4--4--|
D|--2--2--2--2--2--2--2--2--2--2--6--6--6--6--6--4--4--4--4--4--|
A|--0--0--0--0--0--0--0--0--0--0--4--4--4--4--4--2--2--2--2--2--|
E|--------------------------------------------------------------|

[Chorus Part 2.]
(Leads)
(Guitar 1)
"Romance for past-tense..."
E|-----12--11--9--7h9p7-----------------------|--12--11--9--7h9p7---------------------|
B|--9--------------------9-------7----7/9-----|--------------------9-----7-----7h9p7--|
G|--------------------------9--9---9-------9--|-----------------------9-----9---------|
D|--------------------------------------------|---------------------------------------|
A|--------------------------------------------|---------------------------------------|
E|--------------------------------------------|---------------------------------------|


************************************

| /  Slide up
| x  Dead note
| h  Hammer-on
| p  Pull-off

************************************

            
            
Suggest correction
Creating personal tab
Creating personal tab
You can edit any tab online and save it as your Personal.

You can edit, replace or remove any tab part or add personal notes – all changes will be seen only by you.

Personal tabs can be accessed anytime from any device, even offline.
Learn more »
Give kudos to tab author, rate the tab!
1 2 3 4 5
comments
print report bad tab
guest
You may want to rate the tab now too:
select rating
Wanna post a correction for this tab? Suggest correction