Oops, an error
Loading. Please wait.

Interplay Of Forces tab

73 views 3 this week
no commentswrite comment
1 2 3 4 5
3 more votes to show rating
add to favorites
×
Save as Personal and add changes to this tab that will be seen only by you. Learn more ›
×
You can save this tab as Personal to edit and correct it or add notes. All changes will be seen only by you. Learn more »
launch autoscroll
font size
0
reset
how to read this tab
guitar tuner
edit
Autoscroll
slow
fast
+/-
esc
set tempo
stop
Author
Difficulty
ASH RA TEMPEL - INTERPLAY OF FORCES
From the album "Starring Rosi" (1973)
Written by Manuel Göttsching, Rosi Müller
Trascribed by Jonas Svarholt
Email: jonas.gitarrlektioner@gmail.com

[Intro]
Free-form psychedelic jam in Em until (3:45)

Lyrics:
Ihr seid die Zeugen des magischen Tanzes
Der Formen und Klänge
You are those who live to see the magic dance
Of sounds and visions

Entspannt und freut euch im brausenden Strom
Unbend yourself and trust in me
And fall into the raging stream

Laßt alle Dinge durch euch (????)
Let all the things pass through your mind
Know thyselves, don't be blind

Möge der Wasserfall der Bilder und Gedanken
Euch führen wohin er will
The will of thoughts and mental pictures
May guide you wherever it wants to

(3:45)
[MAIN RIFF]
  (Repeat 35,5 times)
e|-10--10--x--9---9--x--5--5--x--4--4--4-------------------------------------|
B|-12--12--x--10--10-x--5--5--x--5--5--5-------------------------------------|
G|-9---9---x--9---9--x--4--4--x--4--4--4-------------------------------------|
D|-9---9---x--9---9--x--2--2--x--2--2--2-------------------------------------|
A|---------------------------------------------------------------------------|
E|---------------------------------------------------------------------------|

(5:10)
 Play freely E5 (079900) until (8:07)

(8:07) 
 Play *Main riff* until the end.
e|-10--10--x--9---9--x--5--5--x--4--4--4-------------------------------------|
B|-12--12--x--10--10-x--5--5--x--5--5--5-------------------------------------|
G|-9---9---x--9---9--x--4--4--x--4--4--4-------------------------------------|
D|-9---9---x--9---9--x--2--2--x--2--2--2-------------------------------------|
A|---------------------------------------------------------------------------|
E|---------------------------------------------------------------------------|

************************************

| x   Dead note

************************************

            
            
Suggest correction
Creating personal tab
Creating personal tab
You can edit any tab online and save it as your Personal.

You can edit, replace or remove any tab part or add personal notes – all changes will be seen only by you.

Personal tabs can be accessed anytime from any device, even offline.
Learn more »
Give kudos to tab author, rate the tab!
1 2 3 4 5
comments
print report bad tab
guest
You may want to rate the tab now too:
select rating
Wanna post a correction for this tab? Suggest correction