Oops, an error
Loading. Please wait.

Boyfriend tab

version 4
version 4

Whole song

Interactive

613 views 1 this week
no commentswrite comment
1 2 3 4 5
1 last vote to show rating
add to favorites
×
Save as Personal and add changes to this tab that will be seen only by you. Learn more ›
×
You can save this tab as Personal to edit and correct it or add notes. All changes will be seen only by you. Learn more »
launch autoscroll
font size
0
reset
how to read this tab
guitar tuner
edit
Autoscroll
slow
fast
+/-
esc
set tempo
stop
Author
ARTIST: Ashlee Simpson
SONG: Boyfriend
ALBUM: I Am Me
TABBER: Pozzire

Intro Riff

e--------------------------------------------------|
b--------------------------------------------------|
g--6-6--16-16-16-16--13--9-9--11-11-11-11--9--6-6--|
d--x-x---x--x--x--x---x--x-x---x--x--x--x--x--x-x--|  X2
a--4-4--14-14-14-14--11--7-7---9--9--9--9--7--4-4--|
E--------------------------------------------------|

e----------------------------|
b----------------------------|
g--6-6--16-16-16-16--13--9-9-|
d--x-x---x--x--x--x---x--x-x-|  X1
a--4-4--14-14-14-14--11--7-7-|
E----------------------------|


Verse 1 (All Downstrokes For both guitars)

Guitar 1
e-------------------------------------------|
b-------------------------------------------|
g--6-6-6-6--9-9-9-9--4-4-4-4--2-2-2-2-------|
d--6-6-6-6--9-9-9-9--4-4-4-4--2-2-2-2-------| X4
a--4-4-4-4--7-7-7-7--2-2-2-2--0-0-0-0-------|
E-------------------------------------------|

Guitar 2
e-------------------------------------------|
b-------------------------------------------|
g--6-6-6-6--9-9-9-9--4-4-4-4--2-2-2-2-------|
D--x-x-x-x--x-x-x-x--x-x-x-x--x-x-x-x-------| X4
A--4-4-4-4--7-7-7-7--2-2-2-2--0-0-0-0-------|
E-------------------------------------------|


Chorus

Guitar 1
e-------------------------------------|
b-------------------------------------|
g--6666666-9999999-4444444-2222222----|
D--6666666-9999999-4444444-2222222----|  X2
A--4444444-7777777-2222222-0000000----|
E-------------------------------------|

Guitar 2
e-------------------------------------|
b-------------------------------------|
g--6666666-9999999-4444444-2222222----|
D--#######-#######-#######-#######----| X2
A--4444444-7777777-2222222-0000000----|
E-------------------------------------|



Intro Riff Played

Guitar 1
e----------------------------|
b----------------------------|
g--6-6--16-16-16-16--13--9-9-|
D--x-x---x--x--x--x---x--x-x-|  X1
A--4-4--14-14-14-14--11--7-7-|
E----------------------------|


Verse (All Downstrokes For both guitars)

Guitar 1
e-------------------------------------------|
b-------------------------------------------|
g--6-6-6-6--9-9-9-9--4-4-4-4--2-2-2-2-------|
D--6-6-6-6--9-9-9-9--4-4-4-4--2-2-2-2-------|   X4
A--4-4-4-4--7-7-7-7--2-2-2-2--0-0-0-0-------|
E-------------------------------------------|

Guitar 2 (Echos softly behind guitar 1)
e----------------------------------|
b----------------------------------| 
g---6-6-6---9-9-9--4-4-4-4--2-2-2--|   X4
D--6-6-6---9-9-9--4-4-4-4--2-2-2---|
A-4-4-4---7-7-7--2-2-2-2--0-0-0----|
E----------------------------------|


Chorus
Guitar 1
e-------------------------------------|
b-------------------------------------|
g--6666666-9999999-4444444-2222222----|
D--6666666-9999999-4444444-2222222----|  X4
A--4444444-7777777-2222222-0000000----|
E-------------------------------------|

Guitar 2
e-------------------------------------|
b-------------------------------------|
g--6666666-9999999-4444444-2222222----|
D--#######-#######-#######-#######----| X4
A--4444444-7777777-2222222-0000000----|
E-------------------------------------|


Bridge Part (After 2nd chorus) (Please stop telling...)
Guitar 1
e--------------------------------------|
b--------------------------------------|
g--6666666-4444444-9999999-11-11-11-11-|
D--6666666-4444444-9999999-11-11-11-11-| x4
A--4444444-2222222-7777777-9--9--9--9--|
E--------------------------------------|

Guitar 2
e----------------------------------------------------|
b----------------------------------------------------|
g--6-6--16-16-16-16--13--9-9--11-11-11-11--9--6-6----|
D--x-x---x--x--x--x---x--x-x---x--x--x--x--x--x-x----| x4
A--4-4--14-14-14-14--11--7-7---9--9--9--9--7--4-4----|
E----------------------------------------------------|

e----------------------|
b----------------------|
g--6-6--16-16-16-16-13-|
D--x-x--x--x--x--x---x-| x1
A--4-4--14-14-14-14-11-|
E----------------------|


Chorus
Guitar 1
e-------------------------------------|
b-------------------------------------|
g--6666666-9999999-4444444-2222222----|
D--6666666-9999999-4444444-2222222----| X4
A--4444444-7777777-2222222-0000000----|
E-------------------------------------|

Guitar 2
e-------------------------------------|
b-------------------------------------|
g--6666666-9999999-4444444-2222222----|
D--#######-#######-#######-#######----| X4
A--4444444-7777777-2222222-0000000----|
E-------------------------------------|


OUTRO (Repeat Til End)
Guitar 1
e-------------------------------------|
b-------------------------------------|
g--6666666-9999999-4444444-2222222----|
D--6666666-9999999-4444444-2222222----|   X2
A--4444444-7777777-2222222-0000000----|
E-------------------------------------|

Guitar 2
e-------------------------------------|
b-------------------------------------|
g--6666666-9999999-4444444-2222222----|  X2
D--#######-#######-#######-#######----|
A--4444444-7777777-2222222-0000000----|
E-------------------------------------|

Thats it!

            
            
Suggest correction
Creating personal tab
Creating personal tab
You can edit any tab online and save it as your Personal.

You can edit, replace or remove any tab part or add personal notes – all changes will be seen only by you.

Personal tabs can be accessed anytime from any device, even offline.
Learn more »
Give kudos to tab author, rate the tab!
1 2 3 4 5
comments
print report bad tab
guest
You may want to rate the tab now too:
select rating
Wanna post a correction for this tab? Suggest correction