Oops, an error
Loading. Please wait.
1,831 views 12 this week
no commentswrite comment
1 2 3 4 5
1 last vote to show rating
add to favorites
×
Save as Personal and add changes to this tab that will be seen only by you. Learn more ›
×
You can save this tab as Personal to edit and correct it or add notes. All changes will be seen only by you. Learn more »
launch autoscroll
font size
0
reset
guitar tuner
edit
Autoscroll
slow
fast
+/-
esc
set tempo
stop
Difficulty
intermediate
G|--------|--------|--------|--------|---------------------------------|---------------------------------|
D|--------|--------|--------|--------|---------------------------------|---------------------------------|
A|--------|--------|--------|--------|---------------------------------|---------------------------------|
E|--------|--------|--------|--------|-5---5---5---5---5---5---5---5---|-7---7---7---7---7---7---7---7---|


G|---------------------------------|---------------------------------|---------------------------------|
D|---------------------------------|---------------------------------|---------------------------------|
A|---------------------------------|---------------------------------|---------------------------------|
E|-4---4---4---4---4---4---4---4---|-9---9---9---9---7---7---7---7---|-5---5---5---5---5---5---5---5---|


G|---------------------------------|---------------------------------|--------------------------------|
D|---------------------------------|---------------------------------|--------------------------------|
A|---------------------------------|---------------------------------|-------------------9---11--9----|
E|-7---7---7---7---7---7---7---7---|-4---4---4---4---4---4---4---4---|-9---9---7--9--9----------------|


G|---------------------------------|---------------------------------|---------------------------------|
D|---------------------------------|---------------------------------|---------------------------------|
A|---------------------------------|---------------------------------|---------------------------------|
E|-5---5---5---5---5---5---5---5---|-7---7---7---7---7---7---7---7---|-4---4---4---4---4---4---4---4---|


G|---------------------------------|---------------------------------|---------------------------------|
D|---------------------------------|---------------------------------|---------------------------------|
A|-----------------------------7---|---------------------------------|---------------------------------|
E|-9---9---9---9---7---0---7-------|-5---5---5---5---5---5---5---5---|-7---7---7---7---7---7---7---7---|


G|---------------------------------|-------------------------------------|---------------------------------|
D|---------------------------------|-------------------------------------|---------------------------------|
A|---------------------------------|-------------------7---9--7----------|---------------------------------|
E|-4---4---4---4---4---4---4---4---|-9---9---7--9--9-------------9---7---|-5---5---5---5---5---5---5---5---|


G|---------------------------------|---------------------------------|---------------------------------|
D|---------------------------------|---------------------------------|---------------------------------|
A|---------------------------------|---------------------------------|---------------------------------|
E|-7---7---7---7---7---7---7---7---|-4---4---4---4---4---4---4---4---|-9---9---9---9---9---9---9---7---|


G|---------------------------------|---------------------------------|---------------------------------|
D|---------------------------------|---------------------------------|---------------------------------|
A|---------------------------------|---------------------------------|---------------------------------|
E|-5---5---5---5---5---5---5---5---|-7---7---7---7---7---7---7---7---|-4---4---4---4---4---4---4---4---|


G|-------------------------------------|---------------------------------|---------------------------------|
D|-------------------------------------|---------------------------------|---------------------------------|
A|-------------------7---9--7----------|---------------------------------|---------------------------------|
E|-9---9---7--9--9-------------9---7---|-5---5---5---5---5---5---5---5---|-7---7---7---7---7---7---7---7---|


G|---------------------------------|---------------------------------|---------------------------------|
D|---------------------------------|---------------------------------|---------------------------------|
A|---------------------------------|---------------------------------|---------------------------------|
E|-4---4---4---4---4---4---4---4---|-9---9---9---9---9---9---9---7---|-5---5---5---5---5---5---5---5---|


G|---------------------------------|---------------------------------|------------------------------|
D|---------------------------------|---------------------------------|------------------------------|
A|---------------------------------|---------------------------------|------------------------------|
E|-7---7---7---7---7---7---7---7---|-9---9---9---9---9---9---9---11--|-0---0---0---0---0---2---12---|


G|---------------------------------|---------------------------------|---------------------------------|
D|---------------------------------|-----------------------------2---|---------------------------------|
A|---------------------------------|-----------------4---2---4-------|---------------------------------|
E|-2---2---2---2---7---7---7---7---|-4---4---4---4-------------------|-2---2---2---2---7---7---7---7---|


G|-----------------------------------|---------------------------------|---------------------------------|
D|-----------------------------4--2--|---------------------------------|-----------------------------2---|
A|-----------------4---2---4---------|---------------------------------|-----------------4---2---4-------|
E|-4---4---4---4---------------------|-2---2---2---2---7---7---7---7---|-4---4---4---4-------------------|


G|---------------------------------|-----------------------------------|---------------------------------|
D|---------------------------------|-----------------------------4--2--|---------------------------------|
A|---------------------------------|-----------------4---2---4---------|---------------------------------|
E|-2---2---2---2---7---7---7---7---|-4---4---4---4---------------------|-5---5---5---5---5---5---5---5---|


G|---------------------------------|---------------------------------|---------------------------------|
D|---------------------------------|---------------------------------|---------------------------------|
A|---------------------------------|---------------------------------|-------------------------7-------|
E|-7---7---7---7---7---7---7---7---|-4---4---4---4---4---4---4---4---|-9---9---9---9---7---7-------7---|


G|---------------------------------|---------------------------------|---------------------------------|
D|---------------------------------|---------------------------------|---------------------------------|
A|---------------------------------|---------------------------------|---------------------------------|
E|-5---5---5---5---5---5---5---5---|-7---7---7---7---7---7---7---7---|-4---4---4---4---4---4---4---4---|


G|--------------------------------|---------------------------------|---------------------------------|
D|--------------------------------|---------------------------------|---------------------------------|
A|-------------------9---11--9----|---------------------------------|---------------------------------|
E|-9---9---7--9--9----------------|-5---5---5---5---5---5---5---5---|-7---7---7---7---7---7---7---7---|


G|---------------------------------|---------------------------------|---------------------------------|
D|---------------------------------|---------------------------------|---------------------------------|
A|---------------------------------|---------------------------------|---------------------------------|
E|-4---4---4---4---4---4---4---4---|-9---9---9---9---9---9---9---7---|-5---5---5---5---5---5---5---5---|


G|---------------------------------|---------------------------------|-------------------------------------|
D|---------------------------------|---------------------------------|-------------------------------------|
A|---------------------------------|---------------------------------|-------------------7---9--7----------|
E|-7---7---7---7---7---7---7---7---|-4---4---4---4---4---4---4---4---|-9---9---7--9--9-------------9---7---|


G|---------------------------------|---------------------------------|---------------------------------|
D|---------------------------------|---------------------------------|---------------------------------|
A|---------------------------------|---------------------------------|---------------------------------|
E|-5---5---5---5---5---5---5---5---|-7---7---7---7---7---7---7---7---|-4---4---4---4---4---4---4---4---|


G|---------------------------------|---------------------------------|---------------------------------|
D|---------------------------------|---------------------------------|---------------------------------|
A|---------------------------------|---------------------------------|---------------------------------|
E|-9---9---9---9---9---9---9---7---|-5---5---5---5---5---5---5---5---|-7---7---7---7---7---7---7---7---|


G|---------------------------------|------------------------------|---------------------------------|
D|---------------------------------|------------------------------|---------------------------------|
A|---------------------------------|------------------------------|---------------------------------|
E|-9---9---9---9---9---9---9---11--|-0---0---0---0---0---2---12---|-2---2---2---2---7---7---7---7---|


G|---------------------------------|---------------------------------|-----------------------------------|
D|-----------------------------2---|---------------------------------|-----------------------------4--2--|
A|-----------------4---2---4-------|---------------------------------|-----------------4---2---4---------|
E|-4---4---4---4-------------------|-2---2---2---2---7---7---7---7---|-4---4---4---4---------------------|


G|---------------------------------|---------------------------------|---------------------------------|
D|---------------------------------|-----------------------------2---|---------------------------------|
A|---------------------------------|-----------------4---2---4-------|---------------------------------|
E|-2---2---2---2---7---7---7---7---|-4---4---4---4-------------------|-2---2---2---2---7---7---7---7---|


G|---------------------------------|---------------------------------|---------------------------------|
D|-----------------------------4---|---------------------------------|---------------------------------|
A|-----------------4---2---4-------|-3---3---3---3---3---3---3---3---|-5---5---5---5---5---5---5---5---|
E|-4---4---4---4-------------------|---------------------------------|---------------------------------|


G|---------------------------------|---------------------------------|---------------------------------|
D|---------------------------------|---------------------------------|---------------------------------|
A|-2---2---2---2---2---2---2---2---|-7---7---7---7---5---5-------5---|-3---3---3---3---3---3---3---3---|
E|---------------------------------|-------------------------5-------|---------------------------------|


G|---------------------------------|---------------------------------|-------------------------------------|
D|---------------------------------|---------------------------------|-------------------5---7--5----------|
A|-5---5---5---5---5---5---5---5---|-2---2---2---2---2---2---2---2---|-7---7---5--7--7-------------7---5---|
E|---------------------------------|---------------------------------|-------------------------------------|


G|---------------------------------|---------------------------------|---------------------------------|
D|---------------------------------|---------------------------------|---------------------------------|
A|---------------------------------|---------------------------------|---------------------------------|
E|-5---5---5---5---5---5---5---5---|-7---7---7---7---7---7---7---7---|-4---4---4---4---4---4---4---4---|


G|---------------------------------|---------------------------------|---------------------------------|
D|---------------------------------|---------------------------------|---------------------------------|
A|-----------------------------7---|---------------------------------|---------------------------------|
E|-9---9---9---9---7---0---7-------|-5---5---5---5---5---5---5---5---|-7---7---7---7---7---7---7---7---|


G|---------------------------------|--------------------------------|---------------------------|
D|---------------------------------|--------------------------------|---------------------------|
A|---------------------------------|-------------------9---11--9----|-----------------------7---|
E|-4---4---4---4---4---4---4---4---|-9---9---7--9--9----------------|-0----0---0---0----7-------|


G|---------------------------------|---------------------------|---------------------------------|
D|-----9---9---9---9---7-----------|---------------------------|---------9---7---7---6-----------|
A|-7-----------------------7-------|-----------------------7---|-7---9-------------------7---9---|
E|-----------------------------7---|-0----0---0---0----7-------|---------------------------------|


G|---------------------------|---------------------------------|---------------------------|
D|---------------------------|-----13--13--13--13--11----------|---------------------------|
A|-----------------------11--|-11----------------------11------|-----------------------12--|
E|-4----4---4---4----11------|-----------------------------11--|-5----5---5---5----12------|


G|---------------------------------|---------------------------|---------------------------------|
D|---------------------------------|---------------------------|---------9---7---7---6-----------|
A|-14--12--11--12--11--9-------9---|-----------------------7---|-7---9-------------------7---9---|
E|-------------------------12------|-0----0---0---0----7-------|---------------------------------|


G|---------------------------|---------------------------------|------------------------------|
D|---------------------------|-----9---9---9---9---7-----------|------------------------------|
A|-----------------------7---|-7-----------------------7-------|------------------------------|
E|-0----0---0---0----7-------|-----------------------------7---|-5----5---5---5---5---5---5---|


G|---------------------------------|------------------------------|---------------------------------|
D|---------------------------------|------------------------------|---------------------------------|
A|---------------------------------|------------------------------|---------------------------------|
E|-7---7---7---7---7---7---7---7---|-4----4---4---4---4---4---4---|-9---9---9---9---9---9---9---7---|


G|---------------------------------|---------------------------------|---------------------------------|
D|---------------------------------|---------------------------------|---------------------------------|
A|---------------------------------|---------------------------------|---------------------------------|
E|-5---5---5---5---5---5---5---5---|-7---7---7---7---7---7---7---7---|-4---4---4---4---4---4---4---4---|


G|---------------------------------|---------------------------------|---------------------------------|
D|---------------------------------|---------------------------------|---------------------------------|
A|---------------------------------|---------------------------------|---------------------------------|
E|-9---9---9---9---9---9---9---9---|-5---5---5---5---5---5---5---5---|-7---7---7---7---7---7---7---7---|


G|---------------------------------|---------------------------------|---------------------------------|
D|---------------------------------|---------------------------------|---------------------------------|
A|---------------------------------|---------------------------------|---------------------------------|
E|-4---4---4---4---4---4---4---4---|-9---9---9---9---7---7---7---7---|-5---5---5---5---5---5---5---5---|


G|---------------------------------|---------------------------------|--------------------------------|
D|---------------------------------|---------------------------------|--------------------------------|
A|---------------------------------|---------------------------------|-------------------9---11--9----|
E|-7---7---7---7---7---7---7---7---|-4---4---4---4---4---4---4---4---|-9---9---7--9--9----------------|


G|---------------------------------|---------------------------------|---------------------------------|
D|---------------------------------|---------------------------------|---------------------------------|
A|---------------------------------|---------------------------------|---------------------------------|
E|-5---5---5---5---5---5---5---5---|-7---7---7---7---7---7---7---7---|-4---4---4---4---4---4---4---4---|


G|---------------------------------|---------------------------------|---------------------------------|
D|---------------------------------|---------------------------------|---------------------------------|
A|-----------------------------7---|---------------------------------|---------------------------------|
E|-9---9---9---9---7---0---7-------|-5---5---5---5---5---5---5---5---|-7---7---7---7---7---7---7---7---|


G|---------------------------------|-------------------------------------|---------------------------------|
D|---------------------------------|-------------------------------------|---------------------------------|
A|---------------------------------|-------------------7---9--7----------|---------------------------------|
E|-4---4---4---4---4---4---4---4---|-9---9---7--9--9-------------9---7---|-5---5---5---5---5---5---5---5---|


G|---------------------------------|---------------------------------|---------------------------------|
D|---------------------------------|---------------------------------|---------------------------------|
A|---------------------------------|---------------------------------|-----------------------------7---|
E|-7---7---7---7---7---7---7---7---|-4---4---4---4---4---4---4---4---|-9---9---9---9---7---0---7-------|


G|---------------------------------|---------------------------------|---------------------------------|
D|---------------------------------|---------------------------------|---------------------------------|
A|---------------------------------|---------------------------------|---------------------------------|
E|-5---5---5---5---5---5---5---5---|-7---7---7---7---7---7---7---7---|-4---4---4---4---4---4---4---4---|


G|---------------------------------|--------|--------|--------|--------|--------|--------|
D|---------------------------------|--------|--------|--------|--------|--------|--------|
A|-----------------------------7---|--------|--------|--------|--------|--------|--------|
E|-9---9---9---9---7---0---7-------|-0------|-0------|-0------|-0------|--------|--------|


G|--------|--------|
D|--------|--------|
A|--------|--------|
E|--------|--------|

            
            
Suggest correction
Creating personal tab
Creating personal tab
You can edit any tab online and save it as your Personal.

You can edit, replace or remove any tab part or add personal notes – all changes will be seen only by you.

Personal tabs can be accessed anytime from any device, even offline.
Learn more »
Give kudos to tab author, rate the tab!
1 2 3 4 5
comments
print report bad tab
guest
Wanna post a correction for this tab? Suggest correction