Oops, an error
Loading. Please wait.

Masdan Mo Ang Kapaligiran solo tab

version 1
version 1

Solo

Whole song

by Asin
1,777 views 21 this week
no commentswrite comment
1 2 3 4 5
2 more votes to show rating
add to favorites
×
Save as Personal and add changes to this tab that will be seen only by you. Learn more ›
×
You can save this tab as Personal to edit and correct it or add notes. All changes will be seen only by you. Learn more »
launch autoscroll
font size
0
reset
how to read this tab
guitar tuner
edit
Autoscroll
slow
fast
+/-
esc
set tempo
stop
Masdan Mo Ang Kapaligiran
Asin
Transcribed by Monstoy Guitar

Check out the video tutorial of this song on my YouTube Channel!

YOUTUBE: https://www.youtube.com/channel/UC8UpBLYq8T0mkscMhkMyuAg
FACEBOOK: www.facebook.com/monstoyguitar
WEBSITE: www.monstoyguitar.blogspot.com
TWITTER: twitter.com/monstoyguitar
ULTIMATE GUITAR: http://profile.ultimate-guitar.com/memoria1981/

Standard Tuning
Capo on 2nd Fret

Intro/Outro
e|-----2--3-2-----------2-3-5------------------|
B|------------5-3---3-5------------------------|
G|----------------4----------------------------|
D|---------------------------------------------|
A|---------------------------------------------|
E|---------------------------------------------|

e|-----7-5-7-5---5-----------------------------|
B|-------------8---8-7-5--------5--5-7-5-------|
G|-----------------------7--4-7----------7-----|
D|---------------------------------------------|
A|---------------------------------------------|
E|---------------------------------------------|

e|--------------7-9-10-----2-------------------|
B|-------7-8-10------------3-------------------|
G|-----9-------------------2-------------------|
D|-------------------------0-------------------|
A|---------------------------------------------|
E|---------------------------------------------|

Guitar Fill
e|---------10-----12------14-------------------|
B|-----3/7----7/8----8/10----------------------|
G|---------------------------------------------|
D|---------------------------------------------|
A|---------------------------------------------|
E|---------------------------------------------| 

            
            
Suggest correction
Creating personal tab
Creating personal tab
You can edit any tab online and save it as your Personal.

You can edit, replace or remove any tab part or add personal notes – all changes will be seen only by you.

Personal tabs can be accessed anytime from any device, even offline.
Learn more »
Give kudos to tab author, rate the tab!
1 2 3 4 5
comments
print report bad tab
guest
You may want to rate the tab now too:
select rating
Wanna post a correction for this tab? Suggest correction