Oops, an error
Loading. Please wait.

A Candlelit Dinner With Inamorta tab

version 2
version 2

Whole song

Interactive

25,898 views 3 this week
7 commentsread comments
1 2 3 4 5
x 5
add to favorites
×
Save as Personal and add changes to this tab that will be seen only by you. Learn more ›
×
You can save this tab as Personal to edit and correct it or add notes. All changes will be seen only by you. Learn more »
launch autoscroll
font size
0
reset
how to read this tab
guitar tuner
edit
Autoscroll
slow
fast
+/-
esc
set tempo
stop
[Intro]
e|-------------------------------|
B|-------------------------------|
G|-------------------------------|
D|-------------------------------|
A|000-000--000000-000--0-00-0-00-|
D|000-000--000000-000--0-00-0-00-|
PM... ...  ...... ...  . .. . ..

[Verse 1]
e|---------------------------------|
B|---------------------------------|
G|---------------------------------|
D|0-2-3-0-10-0-0-8-0-0-7-0-2-3-2-3-|
A|---------------------------------|
D|---------------------------------|

e|---------------------------------|
B|---------------------------------|
G|-----------------------------5---|
D|0-2-3-0-10-0-0-8-0-0-7-0-2-3-----|
A|---------------------------------|
D|---------------------------------|

e|---------------------------------|
B|---------------------------------|
G|---------------------------------|
D|0-2-3-0-10-0-0-8-0-0-7-0-2-3-2-3-|
A|---------------------------------|
D|---------------------------------|

e|---------------------------------|
B|---------------------------------|
G|-----------------------------2---|
D|0-2-3-0-10-0-0-8-0-0-7-0-2-3-----|
A|---------------------------------|
D|---------------------------------|

[Verse 2] (x2)
e|--------------------------------8-----------|
B|----------------------------5-6---6-5---5-6-|
G|--------------------------------------7-----|
D|----------------0-0-------------------------|
A|000000000000000-0-0-0000000-----------------|
D|000000000000000-0-0-0000000-----------------|
PM...............     .......

e|-----------------------------------------------------|
B|-----------------------------------------------------|
G|-----------------------------------------------------|
D|----------------0-8---8-8-7---7-7-10---10-10-8---8-8-|
A|000000000000000-0-8---8-8-7---7-7-10---10-10-8---8-8-|
D|000000000000000-0-8---8-8-7---7-7-10---10-10-8---8-8-|
PM...............

End of 2nd time
e|------------|
B|------------|
G|------------|
D|0-----------|
A|0-----------|
D|0-----------|

[Verse 3] (x2)
e|--------------------------------------------------|
B|--------------------------------------------------|
G|--------------------------------------------------|
D|--------------------------------------------------|
A|00--00---00--00---00---00000000---00--00---00--00-|
D|00--00---00--00---00---00000000---00--00---00--00-|
PM..  ..   ..  ..   ..   ........   ..  ..   ..  ..

e|-------------|
B|-------------|
G|-------------|
D|-------------|
A|8/7----------|
D|8/7-0-5p0-3~-|
PM    .

[Verse 4]
e|--------------------------------------------------|
B|--------------------------------------------------|
G|--------------------------------------------------|
D|--------------------------------------------------|
A|00--00---00--00---00---00000000---00--00---00--00-|
D|00--00---00--00---00---00000000---00--00---00--00-|
  PM-----------------------------------------------|

e|--------------------------------------|
B|--------------------------------------|
G|--------------------------------------|
D|--------------------------------------|
A|000-000--000-000--000---------000-000-|
D|000-000--000-000--000---------000-000-|
PM... ...  ... ...  ...         ... ...


********************

| PM  Palm muting

********************

            
            
Suggest correction
Creating personal tab
Creating personal tab
You can edit any tab online and save it as your Personal.

You can edit, replace or remove any tab part or add personal notes – all changes will be seen only by you.

Personal tabs can be accessed anytime from any device, even offline.
Learn more »
comments
print report bad tab
7 comments total. Showing first comments.
+2 reply
_Gold_ 10 Feb 13, 2010 01:45 PM

Dude it sounds good so far plz continue making it because ive been wanting this for a long time Lol

0 reply
COFanatic 10 Feb 19, 2010 01:00 PM

pretty accurate for what you've got. I love this song, so make sure to finish it up soon, I wanna learn it all

0 reply
cworosz24 50 Mar 28, 2010 04:24 PM

On Verse 2 there. I'm still unsure of the notes. I swear they are tapping. For anyone that likes this version better.
I think the harmony sounds better, but I still pretty sure it's not correct, but does fit the slot well enought to get you through the song.

e|------------------|
B|-----13-----------|
G|-9h10--10p9--9h10-|
D|-----------12-----|
A|------------------|
D|------------------|

guest
You may want to rate the tab now too:
select rating
Wanna post a correction for this tab? Suggest correction