Oops, an error
Loading. Please wait.

A Candlelit Dinner With Inamorta tab

version 4
version 4

Whole song

Interactive

46,122 views 15 this week
4 commentsread comments
1 2 3 4 5
x 14
add to favorites
×
Save as Personal and add changes to this tab that will be seen only by you. Learn more ›
×
You can save this tab as Personal to edit and correct it or add notes. All changes will be seen only by you. Learn more »
launch autoscroll
font size
0
reset
how to read this tab
guitar tuner
edit
Autoscroll
slow
fast
+/-
esc
set tempo
stop
[Intro]
e|------------------------------|
B|------------------------------|
G|------------------------------|
D|------------------------------| x4
A|-000-000-000000-000-0-00-0-00-|
D|-000-000-000000-000-0-00-0-00-|
   ... ... ...... ... . .. . ..

[Verse 1]
e|------------------------------------------------------------------|
B|------------------------------------------------------------------|
G|---------------------------------------------------------------5~-|
D|-0-2-3-0-10-0-0-8-0-0-7-0-2-3-2-3-0-2-3-0-10-0-0-8-0-0-7-0-2-3----|
A|------------------------------------------------------------------|
D|------------------------------------------------------------------|

e|------------------------------------------------------------------|
B|------------------------------------------------------------------|
G|---------------------------------------------------------------2~-|
D|-0-2-3-0-10-0-0-8-0-0-7-0-2-3-2-3-0-2-3-0-10-0-0-8-0-0-7-0-2-3----|
A|------------------------------------------------------------------|
D|------------------------------------------------------------------|

[Verse 2]
(Guitar 1)
e|-------------------------------------------|
B|-------------------------------------------|
G|------------------------9h10-T17p10p9h10p9-|
D|--------------0-0--------------------------|
A|-0000000000000000000000--------------------|
D|-0000000000000000000000--------------------|
   ............. . ......

e|---------------------------------------------|---------|
B|---------------------------------------------|---------|
G|---------------------------------------------|---------|
D|----------------0-8-88-7-77-10-1010-8-88-(x2)|-0-------|
A|-0000000000000000-8-88-7-77-10-1010-8-88-----|-0-------|
D|-0000000000000000-8-88-7-77-10-1010-8-88-----|-0-------|
   ...............

(Guitar 2)
e|----------------------------------------|
B|----------------------------------------|
G|----------------------------------------|
D|--------------0-0-----------------------|
A|-0000000000000000000000-7h8-T15p8p7h8p7-|
D|-0000000000000000000000-----------------|
   ............. . ......

e|---------------------------------------------------|---------|
B|---------------------------------------------------|---------|
G|------------------10-1010-9-99-14-1414-12-1212-----|---------|
D|----------------0-x--x-x--x-xx-x--x-x--x--x-x--(x2)|-0-------|
A|-0000000000000000-8--8-8--7-77-12-1212-10-1010-----|-0-------|
D|-0000000000000000----------------------------------|-0-------|
   ...............

[Verse 3]
e|-----------------------------------------------------|
B|-----------------------------------------------------|
G|-----------------------------------------------------|
D|-----------------------------------------------------| x2
A|-00-00--00-00--00-000000--00-00--00-00--8/7----------|
D|-00-00--00-00--00-000000--00-00--00-00--8/7-0-5p0-3~-|
   .. ..  .. ..  .. ......  .. ..  .. ..      .

[Verse 4]
e|-------------------------------------------|
B|-------------------------------------------|
G|-------------------------------------------|
D|-------------------------------------------|
A|-00-00--00-00--00-000000--00-00--00-00---0-|
D|-00-00--00-00--00-000000--00-00--00-00---0-|
   .. ..  .. ..  .. ......  .. ..  .. ..   .

e|------------------------------------------|
B|------------------------------------------|
G|------------------------------------------|
D|------------------------------------------|
A|-000-000--000-000--000---000-000-----0000-|
D|-000-000--000-000--000---000-000-----0000-|
   ... ...  ... ...  ...   ... ...     ....

[Chorus]
e|-------------------------------------------------------------------------------------------------------|
B|-------------------------------------------------------------------------------------------------------|
G|-10-----9------10-----5------4------5------4------9------12------11-----17-----16------17------16------|
D|-x-(x8)-x-(x4)-x-(x2)-x-(x4)-x-(x8)-x-(x4)-x-(x2)-x-(x8)-x--(x4)-x-(x2)-x-(x4)-x--(x8)-x--(x4)-x--(x2)-| x2
A|-8------7------8------3------2------3------2------7------10------9------15-----14------15------14------|
D|-------------------------------------------------------------------------------------------------------|

End on
e|---------|
B|---------|
G|-10------|
D|-x-------|
A|-8-------|
D|---------|

[Final Breakdown] (Not sure here)
e|-------------------|--------------------|
B|-------------------|--------------------|
G|-------------------|--------------------|
D|-------------------|--------------------| x6
A|-00-00-000-00-000--|-0-00-00-(x7)-0000--|
D|-00-00-000-00-000--|-0-00-00------0000--|
   .. .. ... .. ...    . .. ..      ....

[Chorus]
e|-------------------------------------------------------------------------------------------------------|
B|-------------------------------------------------------------------------------------------------------|
G|-10-----9------10-----5------4------5------4------9------12------11-----17-----16------17------16------|
D|-x-(x8)-x-(x4)-x-(x2)-x-(x4)-x-(x8)-x-(x4)-x-(x2)-x-(x8)-x--(x4)-x-(x2)-x-(x4)-x--(x8)-x--(x4)-x--(x2)-| x2
A|-8------7------8------3------2------3------2------7------10------9------15-----14------15------14------|
D|-------------------------------------------------------------------------------------------------------|

End on
e|---------|
B|---------|
G|-10------|
D|-x-------|
A|-8-------|
D|---------|


**************************************

| .   Palm Mute
| h   Hammer-on
| p   Pull-off
| x   Dead Note
| ~   Vibrato
| T   Tap
| \   Slide Down

**************************************

            
            
Suggest correction
Creating personal tab
Creating personal tab
You can edit any tab online and save it as your Personal.

You can edit, replace or remove any tab part or add personal notes – all changes will be seen only by you.

Personal tabs can be accessed anytime from any device, even offline.
Learn more »
comments
print report bad tab
4 comments total. Showing first comments.
0 reply
blooddrunk666 93 Apr 04, 2010 12:20 AM

Thanks dude. Great job on the chorus.

0 reply
Asdeweff 10 Apr 07, 2011 09:22 AM

What is the LT in the verse riff?

0 reply
EndlessFusionst 10 Aug 30, 2011 08:52 PM

Tap that fret with your other hand.

guest
You may want to rate the tab now too:
select rating
Wanna post a correction for this tab? Suggest correction