Oops, an error
Loading. Please wait.

A Lesson Never Learned tab

version 1
version 1

Whole song

Interactive

25,233 views 3 this week
4 commentsread comments
1 2 3 4 5
x 10
add to favorites
×
Save as Personal and add changes to this tab that will be seen only by you. Learn more ›
×
You can save this tab as Personal to edit and correct it or add notes. All changes will be seen only by you. Learn more »
launch autoscroll
font size
0
reset
how to read this tab
guitar tuner
edit
Autoscroll
slow
fast
+/-
esc
set tempo
stop
I believe my work to be mostly accurate with possibility of few mistakes.
You be the judge. Any corrections would be appreciated.
Plan on tabbing some more new stuff soon! enjoy

Check out my cover: http://www.facebook.com/home.php#!/video/video.php?v=181317341916614

(0:00-0:14)
D|-----------------------------------|
A|-----------------------------------|
F|-----------------------------------|
C|-----------------------------------|(x4)
G|000-00000000-000-0-00000000-00-0-0-|
C|000-00000000-000-0-00000000-00-0-0-|
  ... ........ ... . ........ .. . .

(0:14-0:26)
D|--------------------------|
A|--------------------------|
F|--------------------------|
C|--------------------------|(x4)
G|000-0000-00-0-00--00-0-00-|
C|000-0000-00-0-00--00-0-00-|
  ... .... .. . ..  .. . ..

Guitar 1            Guitar 2
D|-----------------|---------------|
A|-----------------|---------------|
F|7-10-5---7-10-12-|-10-12-14-9-10-|
C|x--x-x---x--x--x-|--x--x--x-x--x-|
G|5--8-3---5--8-10-|--8-10-12-7--8-|
C|-----------------|---------------|

(0:26-0:40)
Guitar 1
D|---------------------------------------------------|
A|---------------------------------------------------|
F|---------------------------------------------------|
C|---------------------------------------------------|(x2)
G|---------------------------------------------------|
C|000-0-0-0-0-0-00000-00000--000-0-0-0-0-0-8888-3333-|
  ...   .   .   ..... .....  ...   .   .

Guitar 2
D|---------------------|
A|---------------------|
F|7-9-12--10-12-14--14-|
C|x-x--x---x--x--x---x-|
G|5-7-10---8-10-12--12-|
C|---------------------|

(0:40-0:52)               bend & release the 1's quickly
D|------------------------------------------------------|
A|------------------------------------------------------|
F|------------------------------------------------------|
C|------------------------------------------------------|(x2)
G|000~-0~-0~-0~--00000~-00000~--000~-0~-0~-0~-----------|
C|000~-0~-0~-0~--00000~-00000~--000~-0~-0~-0~--11111111-|
  ...  .  .  .   .....  .....   ...  .  .  .

(0:52-1:05)
Guitar 1                                      (play first time)
D|--------------------------------------------|-----------------|
A|--------------------------------------------|-----------------|
F|--------------------------------------------|-----------------|
C|--------------------------------------------|-----------------|(x2)
G|000~-0~-0~-0~--00000~-00000~--000~-0~-0~-0~-|-5p0-8p0-5p0-8p0-|
C|111~-1~-1~-1~--11111~-11111~--111~-1~-1~-1~-|-----------------|
  ...  .  .  .   .....  .....   ...

Guitar 2
D|(x2)--|-----------------|
A|------|-5--5x-5x-5x-5~--|
F|7--6--|-x---------------|
C|x--x--|-2---------------|
G|5--4--|-----------------|
C|------|-----------------|

(1:05-1:29)
D|------------------------------------------------------|
A|------------------------------------------------------|
F|------------------------------------------------9-9-9-|
C|------------------------------------------------x-x-x-|
G|00-00-0000-00--000--00000--00-00-0000-00--------7-7-7-|
C|00-00-0000-00--000--00000--00-00-0000-00--8-7-0-------|
  .. .. .... ..  ...  .....  .. .. .... ..

D|---------------------------------------------------------|
A|---------------------------------------------------------|
F|---------------------------------------------------------|
C|---------------------------------------------------------|
G|00-00-0000-00--000----------00-00-0000-00-------7b-7b-7b-|
C|00-00-0000-00--000--000000--00-00-0000-00-8-7-0----------|
  .. .. .... ..  ...          .. .. .... ..

D|---------------------------------------------------------------|
A|---------------------------------------------------------------|
F|---------------------------------------------------------9-9-9-|
C|---------------------------------------------------------x-x-x-|
G|00~-00~-0000~-00~--000~--00000~--00~-00~-0000~-00~-------7-7-7-|
C|00~-00~-0000~-00~--000~--00000~--00~-00~-0000~-00~-8-7-0-------|
  ..  ..  ....  ..   ...   .....   ..  ..  ....  ..

D|------------------------------------------------------|
A|------------------------------------------------------|
F|------------------------------------------------9-9-9-|
C|------------------------------------------------x-x-x-|
G|00-00-0000-00--000--00000--00-00-0000-00--------7-7-7-|
C|00-00-0000-00--000--00000--00-00-0000-00--8-7-0-------|
  .. .. .... ..  ...  .....  .. .. .... ..

(1:29-1:56)
(couldn't really make out a second guitar here)
D|---------|      D|---------|
A|---------|      A|---------|
F|---7-----|      F|---------|
C|0--7--5--|(x4)  C|---------|
G|0--5--5--|      G|0~-0~-0~-|
C|0-----5--|      C|1~-1~-1~-|
                    .  .  .

(1:56-2:44)
D|-------------------------------------------------|
A|-------------------------------------------------|
F|-------------------------------------------------|
C|-------------------------------------------------|
G|0--0-0000--00-0--00-0-0000--0-0000--00-0---------|
C|0--0-0000--00-0--00-0-0000--0-0000--00-0--00001b-|
  .  . ....  .. .  .. . ....  . ....  .. .

                        (1st end)  (2nd end)
D|----------------------|----------|---------|
A|----------------------|----------|---------|
F|----------------------|----------|---------|
C|----------------------|----------|---------|(x2)
G|0-0--00-0-00--0-00-00-|-000-0-00-|---------|
C|0-0--00-0-00--0-00-00-|-000-0-00-|-0000-1b-|
  . .  .. . ..  . .. ..   ... . ..   ....

D|------------------------------------------------------|
A|------------------------------------------------------|
F|------------------------------------------------------|
C|------------------------------------------------------|
G|0~--0~-0000~--00~-0~--00~-0~--0000~--0~--0~--0~-0~-0~-|
C|0~--0~-0000~--00~-0~--00~-0~--0000~--0~--0~--1~-1~-1~-|
  .   .  ....   ..  .   ..  .   ....   .   .   .  .  .

D|-----------------------------|
A|-----------------------------|
F|-----------------------------|
C|-----------------------------|
G|0-0-0--000-000--00000--------|
C|0-0-0--000-000--00000--0x-0x-|
  . . .  ... ...  .....

Guitar 1
D|------------------------------------------|
A|------------------------------------------|
F|------------------------------------------|
C|-----------6-3----------------------------|
G|0-0-0---------------000-000--00000--------|
C|0-0-0-4b-0-----6-0--000-000--00000--0x-0x-|
  . . .    .          ... ...  .....

Guitar 2
D|------------------------------------------|
A|------------------------------------------|
F|------------------------------------------|
C|-----------3-0----------------------------|
G|0-0-0---------------000-000--00000--------|
C|0-0-0-1b-0-----3-0--000-000--00000--0x-0x-|
  . . .    .          ... ...  .....

(1st time let notes ring)
D|-----------------------------|
A|-----------------------------|
F|-----------------------------|
C|-----------------------------|(x2)
G|0-0-0--000-000--00000--------|
C|0-0-0--000-000--00000--0x-0x-|
  . . .  ... ...  .....

Piano Section

(3:13-3:40)
(strum)
D|---------|      D|------------------|
A|---------|      A|------------------|
F|---7-----|      F|------------------|
C|0--7--5--|(x4)  C|------------------|
G|0--5--5--|      G|0~-0~-0~-0~-0~-0~-|
C|0-----5--|      C|0~-0~-0~-1~-1~-1~-|
                    .  .  .  .  .  .

(3:40-3:54)                                   (1st end)(2nd end)
D|--------------------------------------------|-------|--------|
A|--------------------------------------------|-------|--------|
F|--------------------------------------------|-------|--------|
C|--------------------------------------------|-------|--------|(x2)
G|0~-000~-000~-000~--0~-00000~-000~-000~-000~-|-00000-|--------|
C|1~-111~-111~-111~--1~-11111~-111~-111~-111~-|-00000-|-000000-|
  .  ...  ...  ...   .  .....  ...  ...  ...    .....

***********************************************

| .  Palm mute
| x  Mute note
| ~  Let note ring
| p  Pull-off
| b  Bend

***********************************************

            
            
Suggest correction
Creating personal tab
Creating personal tab
You can edit any tab online and save it as your Personal.

You can edit, replace or remove any tab part or add personal notes – all changes will be seen only by you.

Personal tabs can be accessed anytime from any device, even offline.
Learn more »
comments
print report bad tab
4 comments total. Showing first comments.
+3 reply
Kingman725 41 Jun 23, 2011 10:23 AM

actually i find that 1:29-1:56 is

---------
---------
----4----
-0--4--5-
-0--2--5-
-0-----5-

+1 reply
odie134 51 Aug 31, 2011 08:52 AM

this sounds more like it

----------------------------------------|
----------------------------------------|
----------------------------------------|
----------3-----------------------------|
-0-0-0-----4-3----000-000--00000--------|
-0-0-0-1b------4--000-000--00000--0x-0x-|

0 reply
EdwardMasters 785 Oct 16, 2015 08:01 AM, edited at 12:02 pm

idk

guest
You may want to rate the tab now too:
select rating
Wanna post a correction for this tab? Suggest correction