Oops, an error
Loading. Please wait.

A Prophecy tab

version 1
version 1

Whole song

Interactive

241,093 views 120 this week
12 commentsread comments
1 2 3 4 5
x 56
add to favorites
×
Save as Personal and add changes to this tab that will be seen only by you. Learn more ›
×
You can save this tab as Personal to edit and correct it or add notes. All changes will be seen only by you. Learn more »
launch autoscroll
font size
0
reset
how to read this tab
guitar tuner
backing track
0:00
0:00
edit
Autoscroll
slow
fast
+/-
esc
set tempo
stop
This is one of Asking Alexandria's best songs I think I can't believe no one has tabbed
out yet. It's an awesome song and it's pretty fun to play too. By the way, please rate
& comment, it makes me feel good lol.


[Intro]

e|-----------------------------------------------------|
B|-----------------------------------------------------|
G|-------7/9-9-9-9\7-7/10\-------10/12-12-12-12\1010---|
D|--0~---x-x-x-x-x-x-x-x----0~---x-x--x--x--x--x-x-----|
A|--0~---5/7-7-7-7\5-5/8\---0~---8-/10-10-10-10\8-8----|
D|--0~----------------------0~-------------------------|


[Verse]
Strumming
e|---------------------------------|
B|---------------------------------|
G|--10---9--10---14---12--15-------|
D|--x----x--x----x----x---x--------|
A|--8----7--8----12---10--13-------|
D|---------------------------------|

e|---------------------------------|
B|---------------------------------|
G|--10---9--10---14---5--9---------|
D|--x----x--x----x----x--x---------|
A|--8----7--8----12---3--7---------|
D|---------------------------------|

e|---------------------------------------------------|
B|---------------------------------------------------|
G|---------------------------------------------------|
D|---------------------------------------------------|
A|-0000-000-0-000-000000-000-000-0--5p0-7p0-10-8-7---|
D|-0000-000-0-000-000000-000-000-0-------------------|
   .... ... . ... ...... ... ... .

e|---------------------------------------|
B|---------------------------------------|
G|---------------------------------------|
D|---------------------------------------|
A|--0-000-000-0-000-000000-000-000-000---|
D|--0-000-000-0-000-000000-000-000-000---|
      ... ... . ... ...... ... ... ...

e|------------------------------------------------------|
B|------------------------------------------------------|
G|------------------------------------------------------|
D|------------------------------------------------------|
A|--0-000-000-0-000-000000-000-000-0--8p0-10p0-13-10-8--|
D|--0-000-000-0-000-000000-000-000-0--------------------|
      ... ... . ... ...... ... ... .

e|-------------------------------------------------------|
B|-------------------------------------------------------|
G|-------------------------------------------------------|
D|-------------------------------------------------------|
A|--0-000-000-0-000-000000-000-000-0--5p0-7p0-10-8-7--0--|
D|--0-000-000-0-000-000000-000-000-0------------------0--|
      ... ... . ... ...... ... ... .                  .
                                        (not sure about these notes)
e|-------------------------------------------------------------------------|
B|-------------------------------------------------------------------------|
G|-----------------(fuck!)--------------------------------------------5*b--|
D|---------------------------------------8p0-10p0-8p0-7p0-8p0-7p0-5p0------|
A|--0-0-0-0-0-0-00---------------------------------------------------------|
D|--1-1-1-1-1-1-00---------00---00-00-00-----------------------------------|
    . . . . . . ..         ..   .. .. ..

(I have no idea about the pinch harmonic but that's the closest I found)
e|-------------------------------------------------------------------------|
B|-------------------------------------------------------------------------|
G|-------------------4*b----------------------------------------------5*b--|
D|---------------------------------------8p0-10p0-8p0-7p0-8p0-7p0-5p0------|
A|--00~---00~00~00~-------00---00-00-00------------------------------------|
D|--00~---00~00~00~-------00---00-00-00------------------------------------|
    ..    .. .. ..        ..   .. .. ..

e|----------------------------------|
B|----------------------------------|
G|----------------------------------|
D|----------------------------------|
A|--00~---00~00~00~---0-0-0-0-0-0---|
D|--00~---00~00~00~---1-1-1-1-1-1---|
    ..    .. .. ..    . . . . . .


[Chorus]
Strumming up and down
e|------------------------------------------------------|    |------|
B|------------------------------------------------------|    |------|
G|------------------------------------------------------|    |------|
D|--0---------------10-------8----------3---------------|    |--0~--|
A|--0---------------10-------8----------3--------3------| x2 |--0~--|
D|--0---------------10-------8----------3--------2------|    |--0~--|
  24 strums       8 strums  16 strums  8 strums 8 strums

The background guitar before this and during the chorus is a bitch to work out. I worked
most but a few notes were just weird so I didn't put it in.
e|---------------------------------------------|
B|---------------------------------------------|
G|---------------------------------------------|
D|---------------------------------------------| x2
A|--0-0-0-0-0-0--00-00--0-0-0-0-0-0--000-0-00--|
D|--0-0-0-0-0-0--00-00--0-0-0-0-0-0--000-0-00--|
    . . . . . .  .. ..  . . . . . .  ... . ..

e|---------------------------------------------|
B|---------------------------------------------|
G|---------------------------------------------|
D|---------------------------------------------|
A|--0~0~0~0~0~0~-00~00~-0~0~0~0~0~0~-000~0~00~-|
D|--0~0~0~0~0~0~-00~00~-0~0~0~0~0~0~-000~0~00~-|
    . . . . . .  .. ..  . . . . . .  ... . ..

e|------------------------------------------------|
B|------------------------------------------------|
G|------------------------------------------------|
D|------------------------------------------------|
A|--0---0-0-0-0--00-00--0-0-0-0-0-0--000-0-00--0--|
D|--0---0-0-0-0--00-00--0-0-0-0-0-0--000-0-00--0--|
    .   . . . .  .. ..  . . . . . .  ... . ..  .

e|-----------------------------------|
B|-----------------------------------|
G|-----------------------------------|
D|-----------------------------------| x2
A|--00~-00~00~0~00~-00~-000~00~------|
D|--11~-11~11~1~11~-11~-111~11~------|
    ..  .. .. . ..  ..  ... ..

e|-----------------------------------|
B|-----------------------------------|
G|-----------------------------------|
D|-----------------------------------|
A|--00--00-00-0-00--00--000-00-------|
D|--00--00-00-0-00--00--000-00-------|
    ..  .. .. . ..  ..  ... ..

e|------------------------------------|
B|------------------------------------|
G|------------------------------------|
D|------------------------------------|
A|--00~-00~00~0~00~-00~-000~00~--00---|
D|--00~-00~00~0~00~-00~-000~00~--00---|
    ..  .. .. . ..  ..  ... ..   ..


************************************

| x  Dead note
| p  Pull-off
| /  Slide up
| \  Slide down
| ~  Vibrato
| .  Palm Mute

************************************

            
            
Suggest correction
Creating personal tab
Creating personal tab
You can edit any tab online and save it as your Personal.

You can edit, replace or remove any tab part or add personal notes – all changes will be seen only by you.

Personal tabs can be accessed anytime from any device, even offline.
Learn more »
comments
print report bad tab
12 comments total. Showing first comments.
+1 reply
xikn0wagh0stx 10 Jan 22, 2010 01:50 PM

dude i so agree this si such a song and ive been looking for a tab for it like everyday for weeks now so thnx alot and its not tht bad either

+5 reply
zburas985 10 Jun 30, 2010 03:13 PM

on that one part with the harmonic.
i think its a natural harmonic while pulling the tremolo bar. ;)

-1 reply
x79animal 41 Dec 28, 2010 05:38 AM

can you please tab the guitar that comes in at 2:20?

guest
You may want to rate the tab now too:
select rating
Wanna post a correction for this tab? Suggest correction