Oops, an error
Loading. Please wait.
We have an official Closure tab made by UG professional guitarists. Check out the tab »
×
103,264 views 36 this week
9 commentsread comments
1 2 3 4 5
x 28
add to favorites
×
Save as Personal and add changes to this tab that will be seen only by you. Learn more ›
×
You can save this tab as Personal to edit and correct it or add notes. All changes will be seen only by you. Learn more »
launch autoscroll
font size
0
reset
how to read this tab
guitar tuner
edit
Autoscroll
slow
fast
+/-
esc
set tempo
stop
D|--------------------------------------------------------------|
A|--------------------------------------------------------------|
F|--------------------------------------------------------------|
C|--------------------------------------------------------------|
G|--0--0-0---0-0---0-0-0-0---0-0----0--0-0---0-0---0-0-0--0-0-0-|
C|--0--0-0---0-0---0-0-0-0---0-0----0--0-0---0-0---0-0-0--0-0-0-|
    .  . .   . .   . . . .   . .    .  . .   . .   . . .  . . .

D|-----------------------------------------------------------------|
A|-----------------------------------------------------------------|
F|-----------------------------------------------------------------|
C|-----------------------------------------------------------------|
G|--0--0-0---0-0---0-0-0-0---0-0----0--0-0---0-0---7-8-7--------10-|
C|--0--0-0---0-0---0-0-0-0---0-0----0--0-0---0-0---------10-7-8----|
    .  . .   . .   . . . .   . .    .  . .   . .

D|--------------------------------------------------------------|
A|--------------------------------------------------------------|
F|--------------------------------------------------------------|
C|--------------------------------------------------------------|
G|--0--0-0---0-0---0-0-0-0---0-0----0--0-0---0-0---0-0-0--0-0-0-|
C|--0--0-0---0-0---0-0-0-0---0-0----0--0-0---0-0---0-0-0--0-0-0-|
    .  . .   . .   . . . .   . .    .  . .   . .   . . .  . . .

D|-------------------------------------------------------|
A|-------------------------------------------------------|
F|-------------------------------------------------------|
C|-------------------------------------------------------|
G|--0--0-0---0-0---0-0-0-0---0-0----0---------0----0-0-0-|
C|--0--0-0---0-0---0-0-0-0---0-0----0---------0----0-0-0-|
    .  . .   . .   . . . .   . .    .         .    . . .

D|--------------------------------------------------------------|
A|--------------------------------------------------------------|
F|--------------------------------------------------------------|
C|--------------------------------------------------------------|
G|--0--0-0---0-0---0-0-0-0---0-0----0--0-0---0-0---0-0-0--0-0-0-|
C|--0--0-0---0-0---0-0-0-0---0-0----0--0-0---0-0---0-0-0--0-0-0-|
    .  . .   . .   . . . .   . .    .  . .   . .   . . .  . . .

D|----------------------------------------------------------------|
A|----------------------------------------------------------------|
F|----------------------------------------------------------------|
C|----------------------------------------------------------------|
G|--0--0-0---0-0---0-0-0-0---0-0----0--0-0---0-0--7-8-7--------10-|
C|--0--0-0---0-0---0-0-0-0---0-0----0--0-0---0-0--------10-7-8----|
    .  . .   . .   . . . .   . .    .  . .   . .

D|--------------------------------------------------------------|
A|--------------------------------------------------------------|
F|--------------------------------------------------------------|
C|--------------------------------------------------------------|
G|--0--0-0---0-0---0-0-0-0---0-0----0--0-0---0-0---0-0-0--0-0-0-|
C|--0--0-0---0-0---0-0-0-0---0-0----0--0-0---0-0---0-0-0--0-0-0-|
    .  . .   . .   . . . .   . .    .  . .   . .   . . .  . . .

D|--------------------------------------|
A|--------------------------------------|
F|--------------------------------------|
C|--------------------------------------|
G|--0--0-0---0-0---0-0-0-0---0-0----0^--|
C|--0--0-0---0-0---0-0-0-0---0-0----0^--|
    .  . .   . .   . . . .   . .

D|--------------------------------------------------------------------------|
A|--------------------------------------------------------------------------|
F|--------------------------------------------------------------------------|
C|--------------------------------------------------------------------------| x6
G|------8---8-----8------8---8-----8-----------------------10--10--10-8p7h8-|
C|--0-0---0---0-0----0-0---0---0-0---0---0-0-8-0-8-0-0-8--0---0---0---------|
    . .   .   . .    . .   .   . .   .   . .   .   . .    .   .   .

D|----------------------------------------------------------------------------|
A|----------------------------------------------------------------------------|
F|--7-7-7-7---7-7--7-7----7-7-7-7---7-7--7-7--7-7-----5-5-5-5---9-9--9-9--9-9-|
C|--x-x-x-x---x-x--x-x----x-x-x-x---x-x--x-x--x-5-----x-x-x-x---x-x--x-x--x-x-|
G|--5-5-5-5---5-5--5-5----5-5-5-5---5-5--5-5--5-5-----3-3-3-3---7-7--7-7--7-7-|
C|----------------------------------------------------------------------------|

D|----------------------------------------------------------------|
A|----------------------------------------------------------------|
F|---10-10-10-10---10-10--10-10--10-10----5-5-5-5---9-9--9-9--9-9-|
C|---x--x--x--x----x--x---x--x---x--x-----x-x-x-x---x-x--x-x--x-x-|
G|---8--8--8--8----8--8---8--8---8--8-----3-3-3-3---7-7--7-7--7-7-|
C|----------------------------------------------------------------|

D|--------------------------------------------|
A|--------------------------------------------|
F|---7------5-----9-----10-----5-----9--------|
C|---x-x16--x-x8--x-x8--x-x16--x-x8--x-x8--0--|
G|---5------3-----7-----8------3-----7-----0--|
C|-----------------------------------------0--|


D|----------------------------------------------------------------|
A|----------------------------------------------------------------|
F|----------------------------------------------------------------|
C|----------------------------------------------------------------|
G|-0-0---0-0-0-0---0-0---0-0--0-0-0-0---0-0---0-0---0-0-0-0---0-0-|
C|-0-0---0-0-0-0---0-0---0-0--0-0-0-0---0-0---0-0---0-0-0-0---0-0-|
   . .   . . . .   . .   . .  . . . .   . .   . .   . . . .   . .

D|-1--0-------------0-|
A|--------------------|
F|-------2-------2----|
C|----------3---------|
G|--------------------|
C|--------------------|
  Let Ring

D|----------------------------------------------------------------|
A|----------------------------------------------------------------|
F|----------------------------------------------------------------|
C|----------------------------------------------------------------|
G|-0-0---0-0-0-0---0-0---0-0--0-0---0-0-0---0-0---0-0-0-0---0-0---|
C|-0-0---0-0-0-0---0-0---0-0--0-0---1-1-1---0-0---0-0-0-0---0-0---|
   . .   . . . .   . .   . .  . .   . . .   . .   . . . .   . .

D|-1--0-------------0-|
A|--------------------|
F|-------2-------2----|
C|----------3---------|
G|--------------------|
C|--------------------|
  Let Ring

D|---------------------------------------------------------------------|
A|---------------------------------------------------------------------|
F|---------------------------------------------------------------------|
C|---------------------------------------------------------------------|
G|-0-0----0-0-0-0----0-0----0-0---0-0----0-0-0---0-0---0-0-0-0---0-0---|
C|-0-0----0-0-0-0----0-0----0-0---0-0----1-1-1---0-0---0-0-0-0---0-0---|
   . .    . . . .    . .    . .   . .    . . .   . .   . . . .   . .

D|-1--0-------------0-|
A|--------------------|
F|-------2-------2----|
C|----------3---------|
G|--------------------|
C|--------------------|
  Let Ring

D|----------------------------------------------------------------|
A|----------------------------------------------------------------|
F|----------------------------------------------------------------|
C|----------------------------------------------------------------|
G|-0-0---0-0-0-0---0-0---0-0--0-0---0-0-0---0-0---0-0-0-0---0-0---|
C|-0-0---0-0-0-0---0-0---0-0--0-0---1-1-1---0-0---0-0-0-0---0-0---|
   . .   . . . .   . .   . .  . .   . . .   . .   . . . .   . .

D|-1--0-------------0---------------------|
A|----------------------------------------|
F|-------2-------2------------------------|
C|----------3--------------------------0--|
G|----------------------0-0--0-0--0-0--0--|
C|----------------------1-1--1-1--1-1--0--|
  Let Ring              . .  . .  . .

D|---------------------------------------|
A|---------------------------------------|
F|---------------------------------------|
C|--0----------10----------8---------8---| x2
G|--0----------10----------8---------8---|
C|--0----------10----------8---------8---|

D|-----------------------------------------------------------|
A|-----------------------------------------------------------|
F|--7-7----7--7--7--7--7--7--7-----9-9---9--9--9--9--9--9--9-|
C|--x-x----x--x--x--x--x--x--x-----x-x---x--x--x--x--x--x--x-|
G|--5-5----5--5--5--5--5--5--5-----7-7---7--7--7--7--7--7--7-|
C|-----------------------------------------------------------|
 
D|------------------------------------------------------------|
A|------------------------------------------------------------|
F|--10-10---10--10--10--10--10--10--10-----10-10---10--10--10-|
C|--x--x----x---x---x---x---x---x---x------x--x----x---x---x--|
G|--8--8----8---8---8---8---8---8---8------8--8----8---8---8--|
C|------------------------------------------------------------|

D|-------------|
A|-------------|
F|-9-9-9-9-9-9-|
C|-x-x-x-x-x-x-|
G|-7-7-7-7-7-7-|
C|-------------|

D|-----------------------------------------------------------|
A|-----------------------------------------------------------|
F|--7-7----7--7--7--7--7--7--7-----9-9---9--9--9--9--9--9--9-|
C|--x-x----x--x--x--x--x--x--x-----x-x---x--x--x--x--x--x--x-|
G|--5-5----5--5--5--5--5--5--5-----7-7---7--7--7--7--7--7--7-|
C|-----------------------------------------------------------|

D|------------------------------------------------------------|
A|------------------------------------------------------------|
F|--10-10---10--10--10--10--10--10--10-----10-10---10--10--10-|
C|--x--x----x---x---x---x---x---x---x------x--x----x---x---x--|
G|--8--8----8---8---8---8---8---8---8------8--8----8---8---8--|
C|------------------------------------------------------------|

D|-----------------|
A|-----------------|
F|-9-9-9-9-9-9-----|
C|-x-x-x-x-x-x--0--|
G|-7-7-7-7-7-7--0--|
C|--------------0--|

D|---------------------------------------------|
A|---------------------------------------------|
F|---------------------------------------------|
C|---------------------------------------------|
G|----------------------0-0--0-0-0---0--0----0-|
C|--0-0-0-0-0-0-0-0-----0-0--0-0-0---0--0----0-|
                        . .  . . .   .  .    .

D|----------------------------------|
A|----------------------------------|
F|----------------------------------|
C|----------------------------------|
G|-------------------0-0-0---0----0-|
C|-0-0-0-0-0-0-0-0---0-0-0---0----0-|
                     . . .   .    .

D|---------------------------------------------|
A|---------------------------------------------|
F|---------------------------------------------|
C|---------------------------------------------|
G|----------------------0-0--0-0-0---0--0----0-|
C|--0-0-0-0-0-0-0-0-----0-0--0-0-0---0--0----0-|
                        . .  . . .   .  .    .

D|----------------------------------|
A|----------------------------------|
F|----------------------------------|
C|----------------------------------|
G|-------------------0-0-0---0----0-|
C|-0-0-0-0-0-0-0-0---0-0-0---0----0-|
   . . . . . . . .   . . .   .    .

D|-----------------------------------------------------|
A|-----------------------------------------------------|
F|-----------------------------------------------------|
C|-----------------------------------------------------|
G|-0-0---0-0---0-0-0-0-0-0---0-0---0-0---0-0-0---0-0-0-|
C|-0-0---0-0---1-1-1-1-1-1---0-0---0-0---1-1-1---1-1-1-|
   . .   . .   . . . . . .   . .   . .   . . .   . . .

D|-----------------------------------------------------|
A|-----------------------------------------------------|
F|-----------------------------------------------------|
C|-----------------------------------------------------|
G|-0-0---0-0---0-0-0-0-0-0---0-0---0-0---0-0-0---0-0-0-|
C|-0-0---0-0---1-1-1-1-1-1---0-0---0-0---1-1-1---1-1-1-|
   . .   . .   . . . . . .   . .   . .   . . .   . . .


************************************

| x  Dead note
| h  Hammer-on
| p  Pull-off
| ^  Whammy bar
| .  Palm mute

************************************

            
            
Suggest correction
Creating personal tab
Creating personal tab
You can edit any tab online and save it as your Personal.

You can edit, replace or remove any tab part or add personal notes – all changes will be seen only by you.

Personal tabs can be accessed anytime from any device, even offline.
Learn more »
comments
print report bad tab
9 comments total. Showing first comments.
0 reply
-KrazyAsian- 10 Apr 13, 2011 06:42 AM

Hey its TheIbanezBassMan and i like your tab! You did a great job on tabbing this out! :D thnx man

0 reply
bm1ao 137 Apr 17, 2011 05:47 PM

What tunning is it
Dropped D or what?

+1 reply
alexgir 72 Apr 17, 2011 06:47 PM

my bad its drop c i thought i put it in ther.

guest
You may want to rate the tab now too:
select rating
Wanna post a correction for this tab? Suggest correction