Oops, an error
Loading. Please wait.

Final Episode Lets Change The Channel bass

version 2
version 2
9,573 views 1 this week
1 commentread comment
1 2 3 4 5
2 more votes to show rating
add to favorites
×
Save as Personal and add changes to this tab that will be seen only by you. Learn more ›
×
You can save this tab as Personal to edit and correct it or add notes. All changes will be seen only by you. Learn more »
launch autoscroll
font size
0
reset
guitar tuner
edit
Autoscroll
slow
fast
+/-
esc
set tempo
stop
Author
Difficulty
intermediate
----------------------------------------------------------------------------
FINAL EPISODE (LET’S CHANGE THE CHNNEL) – ASKING ALEXANDREA
----------------------------------------------------------------------------

Tabbed By : Justin,

This may not be the exact tab, but it's the most simple way to put it for all you 
who can't find complete tabs :P
Tuning: DROP D or DROP C -> Which ever you prefer, I like drop c personally.
	 DADG	    CGCF

INTRO
|----------------------------------------------------------||
|----------------------------------------------------------||
|----------------------------------------------------------||
|--------0~----------------0~--------12///////0------------||

|----------------------------||----------------------------|
|----------------------------||----------------------------|
|----------------------------||----------------------------|
|0000000000000000--OH-MY-GOD-||0000000000000000--00-00-0-0-|

|----------------------------||----------------------------|
|----------------------------||----------------------------|
|----------------------------||----------------------------|
|8888888888888888--00-00-0-0-||7777777777777777--00-00-0-0-|
REPEAT X2

VERSE 1
|----------------------------------------------------------|
|----------------------------------------------------------|
|----------------------------------------------------------|
|--00-00-0-0----0-00-00-0-0-----00-00-0-0------00-00-0-----|
REPEAT X4

PRE - CHORUS
|----------------------------||----------------------------|
|----------------------------||----------------------------|
|----------------------------||----------------------------|
|0000000000000000--OH-MY-GOD-||0000000000000000--00-00-0-0-|

|----------------------------||----------------------------|
|----------------------------||----------------------------|
|----------------------------||----------------------------|
|8888888888888888--00-00-0-0-||7777777777777777--00-00-0-0-|
REPEAT X2

CHORUS
|----------------------------------------------------------|
|----------------------------------------------------------|
|----------------------------------------------------------|
|-00000000--88888888--55555555------000------000------000--|
REPEAT X4


|--------------|
|--------------|
|--------------|
|-000------000-|

VERSE 2
|----------------------------------------------------------|
|----------------------------------------------------------|
|----------------------------------------------------------|
|-000-000-000-000-00000-00-----00-000-00-------------------|
REPEAT X4

|----------------------------------------------------------|
|----------------------------------------------------------|
|----------------------------------------------------------|
|-00-00-00-00----------------0000--------------------------|
REPEAT X4

CHROUS
|----------------------------------------------------------|
|----------------------------------------------------------|
|----------------------------------------------------------|
|-00000000--88888888--55555555------000------000------000--|
REPEAT X2

AFTER GUITAR
|----------------------------------------------------------|
|----------------------------------------------------------|
|----------------------------------------------------------|
|-77777----------------------------------------------------|

VERSE 3
|----------------------------------------------------------|
|----------------------------------------------------------|
|----------------------------------------------------------|
|-00000-0000-0000------------------------------------------|
REPEAT X4

TECHNO BREAK DOWN
|----------------------------------------------------------|
|----------------------------------------------------------|
|----------------------------------------------------------|
|-000-000-0-0-0----------------0-0-0-----------------------|
REPEAT X4

|----------------------------------------------------------|
|----------------------------------------------------------|
|----------------------------------------------------------|
|-000-000----------------0-0-0-----------------------------|
REPEAT X2

|----------------------------------------------------------|
|----------------------------------------------------------|
|----------------------------------------------------------|
|-000-000-0-0-0----------------0-0-0-----------------------|


| \  slide down
| ~  vibrato
============================================================================

            
            
Suggest correction
Creating personal tab
Creating personal tab
You can edit any tab online and save it as your Personal.

You can edit, replace or remove any tab part or add personal notes – all changes will be seen only by you.

Personal tabs can be accessed anytime from any device, even offline.
Learn more »
Give kudos to tab author, rate the tab!
1 2 3 4 5
comments
print report bad tab
1 comment total.
0 reply
Nickster29 87 Aug 04, 2010 08:04 AM

It kind of has to be drop D if you are using an open note (fret 0). The lowest note in the song in a low D, so if you were to play this in drop C, you would have to play all the 0's as 2's, and etc But other then that, the tab looks good :)

guest
You may want to rate the tab now too:
select rating
Wanna post a correction for this tab? Suggest correction