Oops, an error
Loading. Please wait.

Final Episode Lets Change The Channel tab

version 5
version 5
1,584 views 6 this week
2 commentsread comments
1 2 3 4 5
2 more votes to show rating
add to favorites
×
Save as Personal and add changes to this tab that will be seen only by you. Learn more ›
×
You can save this tab as Personal to edit and correct it or add notes. All changes will be seen only by you. Learn more »
launch autoscroll
font size
0
reset
how to read this tab
guitar tuner
edit
Autoscroll
slow
fast
+/-
esc
set tempo
stop
0:00
E|--------0~-----------------|
B|--------0~-----------------|
G|--------0~-----------------|
D|---0~---0~---(pickslide)---|
A|---0~----------------------|
D|---0~----------------------|

 0:08
E|-----------------------------------------|
B|-----------------------------------------|
G|-----------------------------------------|
D|------------------pause------------------|
A|---000000000000-0-------000000000000-0---|
D|---000000000000-0-------000000000000-0---|
     ************ *       ************ *

E|------------------------------------------------------------------------|
B|------------------------------------------------------------------------|
G|------------------------------------------------------------------------|
D|------------------------------------------------------------------------|
A|---8-----7-----10---8---7h8--888888888888-8--12-----10-----8---10---8---|
D|-----0-0---0-0----0---0------888888888888-8-----8-8----8-8---8----8-----|
       * *   * *    *   *      ************ *     * *    * *   *    *

E|--------------------------------------------|
B|--------------------------------------------|
G|--------------------------------------------|
D|--------------------------------------------|
A|---777777777777-7--10-----8-----7---8---7---|
D|---777777777777-7-----7-7---7-7---7---7-----|
     ************ *     * *   * *   *   *

E|-----------------------------------------|
B|-----------------------------------------|
G|-----------------------------------------|
D|------------------pause------------------|
A|---000000000000-0-------000000000000-0---|
D|---000000000000-0-------000000000000-0---|
     ************ *       ************ *

E|-----------------------------------------------------------------------------|
B|-----------------------------------------------------------------------------|
G|-----------------------------------------------------------------------------|
D|--------------------------------------------------10-----8----------8--------|
A|---12-----10-----13---12---10h12--888888888888-8---------------12-------12---|
D|------0-0----0-0----0----0--------888888888888-8-----8-8---8-8----8---8------|
        * *    * *    *    *        ************ *     * *   * *    *

E|----------------------------------------------|
B|----------------------------------------------|
G|----------------------------------------------|
D|--------------------8-----7----------7--------|
A|---7777777777777-7--------------10-------10---|
D|---7777777777777-7----7-7---7-7----7---7------|
     ************* *    * *   * *    *   *

 0:39
E|--------------------------------------------------------|
B|--------------------------------------------------------|
G|--------------------------------------------------------|
D|--------------------------------------------------------|
A|---8-----7-----10---8---7h8--8-----7-----10---8---7h8---|
D|-----0-0---0-0----0---0--------0-0---0-0----0---0-------|
       * *   * *    *   *        * *   * *    *   *

E|------------------------------------------------------|
B|------------------------------------------------------|
G|------------------------------------------------------|
D|------------------------------------------------------| x3
A|---12-----10-----8---10---8--10-----8-----7---8---7---|
D|------0-0----0-0---0----0-------0-0---0-0---0---0-----|
        * *    * *   *    *       * *   * *   *   *

 0:58
E|------------------------------------------------------------------|
B|------------------------------------------------------------------|
G|------------------------------------------------------------------|
D|------------------------------------------------------------------|
A|---12-----10-----13---12---10h12--12-----10-----13---12---10h12---|
D|------0-0----0-0----0----0-----------0-0----0-0----0----0---------|
        * *    * *    *    *           * *    * *    *    *

E|-------------------------------------------------------|
B|-------------------------------------------------------|
G|-------------------------------------------------------|
D|---10-----8----------8-------8-----7----------7--------|
A|----------------12-------12--------------10-------10---|
D|------0-0---0-0----0---0-------0-0---0-0----0---0------|
        * *   * *    *   *       * *   * *    *   *

 1:09
E|---------------------------------------------|
B|---------------------------------------------|
G|---------------------4-(ph)------------------|
D|---------------------------------------------|
A|---000000000000-0--0--------000000000000-0---|
D|---000000000000-0--0--------000000000000-0---|
     ************ *  *        ************ *

E|------------------------------------------------------------------------|
B|------------------------------------------------------------------------|
G|------------------------------------------------------------------------|
D|------------------------------------------------------------------------|
A|---8-----7-----10---8---7h8--888888888888-8--12-----10-----8---10---8---|
D|-----0-0---0-0----0---0------888888888888-8-----8-8----8-8---8----8-----|
       * *   * *    *   *      ************ *     * *    * *   *    *

E|--------------------------------------------|
B|--------------------------------------------|
G|--------------------------------------------|
D|--------------------------------------------|
A|---777777777777-7--10-----8-----7---8---7---|
D|---777777777777-7-----7-7---7-7---7---7-----|
     ************ *     * *   * *   *   *

E|-----------------------------------------|
B|-----------------------------------------|
G|-----------------------------------------|
D|------------------pause------------------|
A|---000000000000-0-------000000000000-0---|
D|---000000000000-0-------000000000000-0---|
     ************ *       ************ *

E|-----------------------------------------------------------------------------|
B|-----------------------------------------------------------------------------|
G|-----------------------------------------------------------------------------|
D|--------------------------------------------------10-----8----------8--------|
A|---12-----10-----13---12---10h12--888888888888-8---------------12-------12---|
D|------0-0----0-0----0----0--------888888888888-8-----8-8---8-8----8---8------|
        * *    * *    *    *        ************ *     * *   * *    *

E|----------------------------------------------|
B|----------------------------------------------|
G|----------------------------------------------|
D|--------------------8-----7----------7--------|
A|---7777777777777-7--------------10-------10---|
D|---7777777777777-7----7-7---7-7----7---7------|
     ************* *    * *   * *    *   *

 1:39
E|-----------------------------------------------|
B|-----------------------------------------------|
G|-----------------------------------------------|
D|-----------------------------------------------|
A|---0-0000-0-0000-8-8888-8-8888-5-5555-5-5555---|
D|---0-0000-0-0000-8-8888-8-8888-5-5555-5-5555---|

E|--------------------------------------------------------------------------|
B|--------------------------------------------------------------------------|
G|--------------------------------------------------------------------------|
D|--------------------------------------------------------------------------| x2
A|---------12---10h12-------12---10h12-------12---10h12-10h12-12-12-12p10---|
D|---0-0-0----0-------0-0-0----0-------0-0-0----0---------------------------|
     * * *    *       * * *    *       * * *    *

 1:54
E|-----------------------------------------------------|
B|-----------------------------------------------------|
G|-----------------------------------------------------|
D|-----------------------------------------------------|
A|---0-0-0-8---7h8-0-0-0-8---7h8-0-0-0--0-0-0--0-0-0---|
D|---0-0-0---0-----0-0-0---0-----0-0-0--0-0-0--0-0-0---|
     * * *   *     * * *   *     * * *  * * *  * * *

 2:01
E|---------------------------------------------------------------------------------|
B|---------------------------------------------------------------------------------|
G|---------------------------------------------------------------------------------|
D|---------------------------------------------------------------------------------|
A|---000-000--000-000--00000-0--0000-0-00-000-000--000-000--00000-0--00000-0-000---|
D|---000-000--000-000--00000-0--0000-0-00-000-000--000-000--00000-0--00000-0-000---|
     *** ***  *** ***  ***** *  **** * ** *** ***  *** ***  ***** *  ***** * ***

E|----------------------------------------------------------------------------|
B|----------------------------------------------------------------------------|
G|----------------------------------------------------------------------------|
D|---------------------------------------------------------------------pause--|
A|---000-000--000-000--00000-0--0000-0-00-000-000--000-000--00000-0--0--------|
D|---000-000--000-000--00000-0--0000-0-00-000-000--000-000--00000-0--0--------|
     *** ***  *** ***  ***** *  **** * ** *** ***  *** ***  ***** *  *

 2:17
E|-----------------------------------------------|
B|-----------------------------------------------|
G|-----------------------------------------------|
D|-----------------------------------------------|
A|---00-00-00-00---000--00-00-00-00--pause-000---|
D|---00-00-00-00---000--00-00-00-00--------000---|
     ** ** ** **   ***  ** ** ** **        ***

E|-------------------------------------------------------------------|
B|-------------------------------------------------------------------|
G|-------------------------------------------------------------------|
D|-------------------------------------------------------------------|
A|---00-00-00-00-0~--000--00-00-00-00-0~--000--00-00-00-00-0~--000---|
D|---00-00-00-00-0~--000--00-00-00-00-0~--000--00-00-00-00-0~--000---|
     ** ** ** ** *   ***  ** ** ** ** *   ***  ** ** ** ** *   ***

 2:31
E|-----------------------------------------------|
B|-----------------------------------------------|
G|-----------------------------------------------|
D|-----------------------------------------------|
A|---0-0000-0-0000-8-8888-8-8888-5-5555-5-5555---|
D|---0-0000-0-0000-8-8888-8-8888-5-5555-5-5555---|

E|--------------------------------------------------------------------------|
B|--------------------------------------------------------------------------|
G|--------------------------------------------------------------------------|
D|--------------------------------------------------------------------------| x2
A|---------12---10h12-------12---10h12-------12---10h12-10h12-12-12-12p10---|
D|---0-0-0----0-------0-0-0----0-------0-0-0----0---------------------------|
     * * *    *       * * *    *       * * *    *

 2:50
E|-----------------------------------------|
B|-----------------------------------------|
G|--------------------------------5-(ph)---|
D|---(Gtr.1)--(Gtr.2)----------------------|
A|---00-00-0--00-00-0-pause-00-00----------|
D|---00-00-0--00-00-0-------00-00----------|
     ** ** *  ** ** *       ** **

 2:54
E|-----------------------------------------------|
B|-----------------------------------------------|
G|----------------------------------11-8---------|
D|-------------------------------10------10------|  x2
A|---00-00-0--00-00-0--00-00-0-8------------11---|
D|---00-00-0--00-00-0--00-00-0-------------------|
     ** ** *  ** ** *  ** ** *

E|-------------------------------------------------|
B|-------------------------------------------------|
G|-----------------------------------14-11---------|
D|--------------------------------13-------13------| x2
A|---00-00-0--00-00-0--00-00-0-12-------------14---|
D|---00-00-0--00-00-0--00-00-0---------------------|
     ** ** *  ** ** *  ** ** *

 3:10
E|--------|
B|--------|
G|--------|
D|--------|
A|---0~---|
D|---0~---|

 3:33
E|----------------------------------------------------------------------------|
B|----------------------------------------------------------------------------|
G|----------------------------------------------------------------------------|
D|----------------------------------------------------------------------------|
A|---000-000-00~0-00~0--000-000-00~0-00~0--000-000-0~-00~0--000-000-0~-00~0---|
D|---000-000-00~0-00~0--000-000-00~0-00~0--000-000-0~-00~0--000-000-0~-00~0---|
     *** *** ** * ** *  *** *** ** * ** *  *** *** *  ** *  *** *** *  ** *

E|------------------------------------------------------------------------|
B|------------------------------------------------------------------------|
G|------------------------------------------------------------------------|
D|------------------------------------------------------------------------|
A|---000-000-00~0-00~0--000-000-00~0-00~0--000-000-0~--000-000-0~-0-0-0---|
D|---000-000-00~0-00~0--000-000-00~0-00~0--000-000-0~--000-000-0~-0-0-0---|
     *** *** ** * ** *  *** *** ** * ** *  *** *** *   *** *** *

Legend:
~	Let Note Ring
*	Palm Muted
h	Hammer-on
ph	Pinch Harmonic
p	Pull-Off

            
            
Suggest correction
Creating personal tab
Creating personal tab
You can edit any tab online and save it as your Personal.

You can edit, replace or remove any tab part or add personal notes – all changes will be seen only by you.

Personal tabs can be accessed anytime from any device, even offline.
Learn more »
Give kudos to tab author, rate the tab!
1 2 3 4 5
comments
print report bad tab
2 comments total.
0 reply
LMBozovich 1,346 Sep 24, 2017 10:04 AM

You need to adjust the title to The Final Episode (Let's Change The Channel), not just Let's Change The Channel.

0 reply
LMBozovich 1,346 Oct 12, 2017 08:13 PM

Also, I don't know why you have those "1/2" marks next to the string names, but this is not in any quarter-step tuning, and it MUST have the "|" symbol next to the string names.

guest
You may want to rate the tab now too:
select rating
Wanna post a correction for this tab? Suggest correction