Oops, an error
Loading. Please wait.

Final Episode Lets Change The Channel tab

version 2
version 2
179,457 views 180 this week
26 commentsread comments
1 2 3 4 5
x 68
add to favorites
×
Save as Personal and add changes to this tab that will be seen only by you. Learn more ›
×
You can save this tab as Personal to edit and correct it or add notes. All changes will be seen only by you. Learn more »
launch autoscroll
font size
0
reset
how to read this tab
guitar tuner
edit
Autoscroll
slow
fast
+/-
esc
set tempo
stop
[Intro]
e|-----9*----------|
B|-----9*----------|
G|-----9*----------|
D|0----------------|
A|0--------x\------|
D|0--------x\------|

[Verse 1]
e|-----------------------|-----------------------|----------------------------|
B|-----------------------|-----------------------|----------------------------|
G|-----------------------|-----------------------|----------------------------|
D|-----------------------|-----------------------|----------------------------|
A|0000-0000-0000-0---0---|0000-0000-0000-0---0---|8-----7-----10---8---7h8----|
D|0000-0000-0000-0---0---|0000-0000-0000-0---0---|--0-0---0-0----0---0--------|
  .... .... .... .   .    .... .... .... .   .      . .   . .    .   .

e|-----------------------|--------------------------|-----------------------|-------------------------|
B|-----------------------|--------------------------|-----------------------|-------------------------|
G|-----------------------|--------------------------|-----------------------|-------------------------|
D|-----------------------|--------------------------|-----------------------|-------------------------|(x2)
A|8888-8888-8888-8---8---|12-----10-----8---10---8--|7777-7777-7777-7---7---|10-----8-----7---8---7---|
D|8888-8888-8888-8---8---|---8-8----8-8---8----8----|7777-7777-7777-7---7---|---7-7---7-7---7---7-----|
  .... .... .... .   .       . .    . .   .    .     .... .... .... .   .       . .   . .   .   .

[Verse 2]
e|--------------------------------------------------------|
B|--------------------------------------------------------|
G|--------------------------------------------------------|
D|--------------------------------------------------------|
A|8-----7-----10---8---7h8---8-----7-----10---8---7h8-----|
D|--0-0---0-0----0---0---------0-0---0-0----0---0---------|
    . .   . .    .   .         . .   . .    .   .

e|--------------------------------------------------------|
B|--------------------------------------------------------|
G|--------------------------------------------------------|
D|--------------------------------------------------------|(x4)
A|12-----10-----8---10---8-----10-----8-----7---8---7-----|
D|---0-0----0-0---0----0----------0-0---0-0---0---0-------|
     . .    . .   .    .          . .   . .   .   .

[Pre-Chorus]
e|----------------------------------------------------------------|
B|----------------------------------------------------------------|
G|----------------------------------------------------------------|
D|-----------------4*b--------------------------------------------|
A|000000000000----------000000000000--8-----7-----10---8---7h8----|
D|000000000000--0-------000000000000----0-0---0-0----0---0--------|
  ............  .       ............    . .   . .    .   .

e|-------------------------------------------------|------------------------------------------------|
B|-------------------------------------------------|------------------------------------------------|
G|-------------------------------------------------|------------------------------------------------|
D|-------------------------------------------------|------------------------------------------------|
A|888888888888--12-----10-----8---10---8-----------|777777777777--10-----8-----7---8---7------------|
D|888888888888-----8-8----8-8---8----8-------------|777777777777-----7-7---7-7---7---7--------------|
  ............     . .    . .   .    .              ............     . .   . .   .   .

[Verse 1]
e|-----------------------|-----------------------|----------------------------|
B|-----------------------|-----------------------|----------------------------|
G|-----------------------|-----------------------|----------------------------|
D|-----------------------|-----------------------|----------------------------|
A|0000-0000-0000-0---0---|0000-0000-0000-0---0---|8-----7-----10---8---7h8----|
D|0000-0000-0000-0---0---|0000-0000-0000-0---0---|--0-0---0-0----0---0--------|
  .... .... .... .   .    .... .... .... .   .      . .   . .    .   .

e|-----------------------|--------------------------|-----------------------|-------------------------|
B|-----------------------|--------------------------|-----------------------|-------------------------|
G|-----------------------|--------------------------|-----------------------|-------------------------|
D|-----------------------|--------------------------|-----------------------|-------------------------|
A|8888-8888-8888-8---8---|12-----10-----8---10---8--|7777-7777-7777-7---7---|10-----8-----7---8---7---|
D|8888-8888-8888-8---8---|---8-8----8-8---8----8----|7777-7777-7777-7---7---|---7-7---7-7---7---7-----|
  .... .... .... .   .       . .    . .   .    .     .... .... .... .   .       . .   . .   .   .

[Chorus]
e|--------------------------------------------------|
B|3-----11-----8------------------------------------|
G|2-----10-----7------------------------------------|
D|0-----8------5------------------------------------|(x2)
A|0-----8------5--------8---7h8-(x3)--7h8-8-8-8p7---|
D|0-----8------5----000---0-------------------------|
                    ...   .

[Pre-Breakdown]
e|------------------------------------------|
B|-----------------------------------9*b\---|
G|------------------------------------------|
D|------------------------------------------|
A|----8---7h8------8---7h8------------------|
D|000---0------000---0-------000-000--------|
  ...   .      ...   .       ... ...

[Breakdown]
e|---------------------------------------------|
B|---------------------------------------------|
G|---------------------------------------------|
D|---------------------------------------------|
A|000-000-000-000--0000-0-0--0000-0-0-0-0------|
D|000-000-000-000--0000-0-0--0000-0-0-0-0------|
  ... ... ... ...  .... . .  .... . . . .

e|-----------------------------------------|
B|-----------------------------------------|
G|-----------------------------------------|
D|-----------------------------------------|
A|000-000-000-000--0000-0-0--000-0-0-000---|
D|000-000-000-000--0000-0-0--000-0-0-000---|
  ... ... ... ...  .... . .  ... . . ...

e|---------------------------------------------|
B|---------------------------------------------|
G|---------------------------------------------|
D|---------------------------------------------|
A|000-000-000-000--0000-0-0--0000-0-0-0-0------|
D|000-000-000-000--0000-0-0--0000-0-0-0-0------|
  ... ... ... ...  .... . .  .... . . . .

e|--------------------------------------|
B|--------------------------------------|
G|--------------------------------------|
D|--------------------------------------|
A|000-000-000-000--0000-0-0--0-0000-----|
D|000-000-000-000--0000-0-0--0-0000-----|
  ... ... ... ...  .... . .  . ....

Breakdown Continues
e|-----------------------------------------------|
B|-----------------------------------------------|
G|-----------------------------------------------|
D|-----------------------------------------------|
A|00-00-00-00----000-----00-00-00-00---000000----|
D|00-00-00-00----000-----00-00-00-00---000000----|
  .. .. .. ..    ...     .. .. .. ..   ......

e|--------------------------------------------------|
B|--------------------------------------------------|
G|--------------------------------------------------|
D|--------------------------------------------------|
A|00--00--00--00----000----00--00--00--00----000----|
D|00--00--00--00----000----00--00--00--00----000----|
  ..  ..  ..  ..    ...    ..  ..  ..  ..    ...

[Chorus]
e|--------------------------------------------------|
B|3-----11-----8------------------------------------|
G|2-----10-----7------------------------------------|
D|0-----8------5------------------------------------|(x2)
A|0-----8------5--------8---7h8-(x3)--7h8-8-8-8p7---|
D|0-----8------5----000---0-------------------------|
                    ...   .

[Bridge]
e|---------------------------------|
B|---------------------------------|
G|---------------------------------|
D|-------------------------5*------|
A|00000-00000--------0000----------|
D|00000-00000--------0000----------|
                     ....

e|----------------------------------|
B|-------------------------8--------|
G|-------------------5-7-8---8-7----|
D|----------------------------------|(x4)
A|00000-00000-00000-----------------|
D|00000-00000-00000-----------------|
  ..... ..... .....

e|--------|
B|--------|
G|--------|
D|0-------|
A|0-------|
D|0-------|

[Outro]
e|------------------------------------------------------------|
B|------------------------------------------------------------|
G|------------------------------------------------------------|
D|------------------------------------------------------------|(x2)
A|000--000---0-0-0---0-0-0-------000--000--0---0--0--0--------|
D|000--000---0-0-0---0-0-0--x2---000--000--0---0--0--0---x2---|
  ...  ...           . . .       ...  ...  .   .  .  .
Second time through, don't play the last three notes

e|--------|
B|--------|
G|--------|
D|--------|
A|0-0-0---|
D|0-0-0---|


************************************

| x  Dead note
| h  Hammer-on
| p  Pull-off

************************************

            
            
Suggest correction
Creating personal tab
Creating personal tab
You can edit any tab online and save it as your Personal.

You can edit, replace or remove any tab part or add personal notes – all changes will be seen only by you.

Personal tabs can be accessed anytime from any device, even offline.
Learn more »
comments
print report bad tab
26 comments total. Showing first comments.
0 reply
musicidot 31 May 20, 2010 10:19 PM

dude good job

0 reply
whyze250f 100 Jul 25, 2010 01:03 PM

this is very accurate... good job

0 reply
wtfxsteven 204 Aug 28, 2010 06:57 PM

chorus is off by a little the open note doesnt go for that long

guest
You may want to rate the tab now too:
select rating
Wanna post a correction for this tab? Suggest correction