Oops, an error
Loading. Please wait.

Nobody Dont Dance No More tab

version 1
version 1

Whole song

Interactive

21,654 views 6 this week
4 commentsread comments
1 2 3 4 5
x 8
add to favorites
×
Save as Personal and add changes to this tab that will be seen only by you. Learn more ›
×
You can save this tab as Personal to edit and correct it or add notes. All changes will be seen only by you. Learn more »
launch autoscroll
font size
0
reset
how to read this tab
guitar tuner
edit
Autoscroll
slow
fast
+/-
esc
set tempo
stop
[Intro]
e|-------------------|-------------------|-----------------------|----------------|
B|---------------5---|-------------555---|----------------555----|----------------|
G|---------------8---|-------------888---|----------------888----|x---x---x---x---|
D|-------------------|-------------------|-----------------------|x---x---x---x---|
A|00---000000---0----|00~-000000--0------|00---0000000---0-------|x---x---x---x---|
D|00---000000---0----|00~-000000--0------|00---0000000---0-------|----------------|
  ..   ......   .     ..  ......  .       ..   .......   .

[Verse]
e|------------------------------|--------------------------------------------|
B|------------------------------|--------------------------------------------|
G|------------------------------|--------------------------------------------| x4
D|---7p0-5p0-7p0----7p0-5p0-7p0-|---7p0-5p0-7p0-8p0-7p0-5h7p5-3p2------------|
A|00-------------00-------------|00------------------------------------------|
D|00-------------00-------------|00------------------------------------------|
  ..             ..              ..

e|-------------------|-------------------------------------------------------|
B|------------555555-|-------------------------------------------------------|
G|------------888888-|--------------8---8---8---8----------------------------|
D|-------------------|--------------12--12--12--12--0------------------------|
A|00~-000000~--------|00~-000000~-------------------0------------------------|
D|00~-000000~--------|00~-000000~-------------------0------------------------|
  ..  ......          ..  ......

[Chorus]
e|--------------------------------------------------------------------------|
B|--------------------------------------------------------------------------|
G|-10-----12-----14-----15----------10-----14-----12-----9------------------| x2
D|-x--x8--x--x8--x--x8--x--x8-------x--x8--x--x8--x--x8--x--x8--------------|
A|-8------10-----12-----13----------8------12-----10-----7------------------|
D|--------------------------------------------------------------------------|

Guitar 1
e|-----------------------|
B|-----------------------|
G|-----------------------| x4
D|-----------------------|
A|8--7-10-8--7-7h8p7-5-8-|
D|-00-0--0--0------------|
   .. .  .  .

Guitar 2
e|-------------------------------------|
B|-------------------------------------|
G|-10----9-10--------------------------| x2
D|-x-----x-x-----7--5-8-7--5-5h7p5-3-7-|
A|-8-----7-8---------------------------|
D|----------------00-0-0--0------------|
                  .. . .  .

[Chorus]
e|--------------------------------------------------------------------------|
B|--------------------------------------------------------------------------|
G|-10-----12-----14-----15----------10-----14-----12-----9------------------| x2
D|-x--x8--x--x8--x--x8--x--x8-------x--x8--x--x8--x--x8--x--x8--------------|
A|-8------10-----12-----13----------8------12-----10-----7------------------|
D|--------------------------------------------------------------------------|

[Breakdown]                          On the second time, do this:
e|-----------------------------|    |--------------------------------------|
B|-----------------------------|    |--------------------------------------|
G|-------------9p0-5p0-8p0-7p0-| x4 |------------9p0-5p0-7*----------------|
D|-----------------------------|    |--------------------------------------|
A|00--0000000------------------|    |-00--0000000--------------------------|
D|00--0000000------------------|    |-00--0000000--------------------------|
  ..  .......                         ..  .......

[Techno Breakdown]
Guitar 1
e|----------------------------------------|
B|----------------------------------------|
G|-----------------------------14-14--14--| x3
D|0----------------------------x--x---x---|
A|0----------------------------12-12--12--|
D|0---------------------------------------|

Guitar 2 (Come in after Guitar 1 plays once)
e|----------------------------------------|
B|----------------------------------------|
G|--10-10-9-9--10-10--x3--10-10--10-------| x2
D|--x--x--x-x--x--x-------x--x---x--------|
A|--8--8--7-7--8--8-------8--8---8--------|
D|----------------------------------------|

e|---------------------|
B|---------------------|
G|---------------------|
D|0--------------------|
A|0--------------------|
D|0--------------------|

[Heavy Breakdown]
e|--------------------------------------------------------------------|
B|--------------------------------------------------------------------|
G|--------------------------------0h2h3-------------------------------|
D|1-------1-------1----------2h3h5-------1-------1-------1------------|
A|1--0-0--1--0-0--1--0-0--3h5------------1--0-0--1--0-0--1--0-0-------|
D|1--0-0--1--0-0--1--0-0-----------------1--0-0--1--0-0--1--0-0-------|
     . .     . .     . .                    . .     . .     . .

e|---------------------------------------------------------------|
B|---------------------------------------------------------------|
G|--------------------------------0h2h3--------------------------|
D|---------------------------2h3h5-------------------------------|
A|0-0-0---0-0-0---0-0-0---3h5------------0-0-0---0-0-0---0-0-0---|
D|0-0-0---0-0-0---0-0-0------------------0-0-0---0-0-0---0-0-0---|
  . . .   . . .   . . .                  . . .   . . .   . . .

Sweep part (just a normal scale I couldn't figure out exactly)
e|-------------------------15-----------------|
B|----------------15-17-18----18-17-15--------|
G|-------14-15-17----------------------15-----| (repeat 00 accents with sweep,
D|-15-17--------------------------------------|  then lower single note part again)
A|--------------------------------------------|
D|--------------------------------------------|

e|----------------------------------------|
B|-------------------------*5-------------|
G|----------------------------------------|
D|0---0--------0--------------------------|
A|0---0----875-0--0-000000----------------|
D|0---0----875-0--0-000000----------------|
           ...      ......  Dive Bomb

[Verse]
e|---------------------------------------------------------------|
B|---------------------------------------------------------------|
G|---------------------------------------------------------------| x2
D|0--------------8-7-----------0--------------8-7-5h7-0----------|
A|0----------------------------0---------------------------------|
D|0--0-000-000-0-----0-000-000-0--0-000-000-0----0---------------|
     . ... ... .     . ... ...    . ... ... .    .

e|---------------------------------------------------------------|
B|---------------------------------------------------------------|
G|-----------------------------------------------------9---------| x2
D|0--------------8-7-----------0--------------8-7-5h7------------|
A|0----------------------------0---------------------------------|
D|0--0-000-000-0-----0-000-000-0--0-000-000-0----0---------------|
     . ... ... .     . ... ...    . ... ... .    .

[Breakdown] (one guitar holds chord 1st time)
e|----------------------------------------------------------|
B|----------------------------------------------------------|
G|----------------------------------------------------------|
D|0----------------------------0----------------------------|
A|0--0-000-000--0--0-000-000-0-0--0-000-000--0--0-000-000-0-|
D|0--0-000-000--0--0-000-000-0-0--0-000-000--0--0-000-000-0-|
     . ... ...  .  . ... ... .    . ... ...  .  . ... ... .

e|----------------------------------------------------------|
B|----------------------------------------------------------|
G|----------------------------------------------------------|
D|0----------------------------0----------------------------|
A|0--0-000-000--0--0-000-000-0-0--0-000-000--0--------------|
D|0--0-000-000--0--0-000-000-0-0--0-000-000--0--------------|
     . ... ...  .  . ... ... .    . ... ...  .

Repeat w/ at end:
e|---------------|
B|---------------|
G|---------------|
D|---------------|
A|5--------------|
D|---------------|
  Dive Bomb

e|----------------------------------------------------------|
B|----------------------------------------------------------|
G|----------------------------------------------------------|
D|0----------------------------0----------------------------|
A|0--0-000-000--0--0-000-000-0-0--0-000-000--0--0-000-000-0-|
D|0--0-000-000--0--0-000-000-0-0--0-000-000--0--0-000-000-0-|
     . ... ...  .  . ... ... .    . ... ...  .  . ... ... .

e|------------------------------------------------------------|
B|------------------------------------------------------------|
G|------------------------------------------------------------|
D|0----------------------------0----------------------------0-|
A|0--0-000-000--0--0-000-000-0-0--0-000-000--0--0-000-000-0-0-|
D|0--0-000-000--0--0-000-000-0-0--0-000-000--0--0-000-000-0-0-|
     . ... ...  .  . ... ... .    . ... ...  .  . ... ... .


********************

| .  Palm mute
| h  Hammer-on
| p  Pull-off
| *  Harmonic

********************

            
            
Suggest correction
Creating personal tab
Creating personal tab
You can edit any tab online and save it as your Personal.

You can edit, replace or remove any tab part or add personal notes – all changes will be seen only by you.

Personal tabs can be accessed anytime from any device, even offline.
Learn more »
comments
print report bad tab
4 comments total. Showing first comments. show 1 bad comment
+1 reply
suttonb 10 Oct 04, 2009 09:15 AM

this is a wonderful tab, good job. but on this part:

E--------------------------------------------------------------------B-------------555555-------------------------------------------------
G-------------888888---------------8--8--8--8------------------------
D----------------------------------12-12-12-12----0~-----------------
A-00~-000000~--------00~-000000~------------------0~-----------------
D-00~-000000~--------00~-000000~------------------0~-----------------
.. ...... .. ......

would it not be easier to play this and have it sound the same?:

E--------------------------------------------------------------------B-------------555555-----------------4-4-4-4-------------------------
G-------------888888-----------------7-7-7-7-------------------------
D-------------------------------------------------0~-----------------
A-00~-000000~--------00~-000000~------------------0~-----------------
D-00~-000000~--------00~-000000~------------------0~-----------------
.. ...... .. ......

0 reply
suttonb 10 Oct 04, 2009 09:19 AM

damn my post looks ugly lol. but basically what im trying to say is instead of playing 8 on the G string and 12 on the D string, how about playing 7 on the B string and 7 on the G string, so you slide that 5-8 shape down one fret? idk, it sounds the same to me and its way easier to play

guest
You may want to rate the tab now too:
select rating
Wanna post a correction for this tab? Suggest correction