Oops, an error
Loading. Please wait.

Nobody Dont Dance No More tab

version 1
version 1

Whole song

Interactive

11,881 views 12 this week
1 commentread comment
1 2 3 4 5
x 8
add to favorites
×
Save as Personal and add changes to this tab that will be seen only by you. Learn more ›
×
You can save this tab as Personal to edit and correct it or add notes. All changes will be seen only by you. Learn more »
launch autoscroll
font size
0
reset
how to read this tab
guitar tuner
edit
Autoscroll
slow
fast
+/-
esc
set tempo
stop
(0:00-0:14)
e|------------------------------------------------|
B|-------------------5~-----------------------555-|
G|-------------------8~-----------------------888-|
D|-00----000000----0------00~----000000~----0-----|
A|-00----000000----0------00~----000000~----0-----|
D|-00----000000----0------00~----000000~----0-----|
   **    ******    *      **     ******     *

e|-----------------------xxxx-|
B|-------------------555-xxxx-|
G|-------------------888-xxxx-|
D|-00----000000----0-----xxxx-|
A|-00----000000----0-----xxxx-|
D|-00----000000----0-----xxxx-|
   **    ******    *

(0:14-0:34)
e|----------------------------------------------------------------|
B|----------------------------------------------------------------|
G|----------------------------------------------------------------| x4
D|-00-7p0-5p0-7p0-00-7p0-5p0-7p0-00-7p0-5p0-7p0-8p0-7p0-5h7p5-3p0-|
A|-00-------------00-------------00-------------------------------|
D|-00-------------00-------------00-------------------------------|
   **             **             **

(0:34-0:48)
e|-------------------------------------------------------|
B|-------------------555555-------------------4-4-4-4----|
G|-------------------888888-------------------7-7-7-7----|
D|-00~----000000~-----------00~----000000~------------0~-|
A|-00~----000000~-----------00~----000000~------------0~-|
D|-00~----000000~-----------00~----000000~------------0~-|
   **     ******            **     ******

(0:48-1:06)
(Guitar 1 - left)
e|--------------------------------------------|
B|--------------------------------------------|
G|-7----9----10----12----7----10----9----5----| x2
D|-x-x8-x-x8-x--x8-x--x8-x-x8-x--x8-x-x8-x-x8-|
A|-5----7----8-----10----5----8-----7----3----|
D|--------------------------------------------|

(Guitar 2 - right)
e|------------------------------------------------|
B|------------------------------------------------|
G|-10----12----14----15----10----14----12----9----| x2
D|-x--x8-x--x8-x--x8-x--x8-x--x8-x--x8-x--x8-x-x8-|
A|-8-----10----12----13----8-----12----10----7----|
D|------------------------------------------------|

(1:06-1:15)
e|------------------------|
B|------------------------|
G|------------------------| x2
D|------------------------|
A|-8--7-10-8--7-7h8p7-5h7-|
D|--00-0--0-00-0----------|
    ** *  * ** *

e|--------------------------------------------|
B|--------------------------------------------|
G|--------------------------------------------|
D|-7--5-8-7--5-5h7p5-3h5-7--5-8-7-------------|
A|--------------------------------------------|
D|--00-0-0-00-0-----------00-0-0--(pick-slide)|
    ** * * ** *           ** * *

(1:15-1:33)
(Guitar 1 - left)
E|--------------------------------------------|
B|--------------------------------------------|
G|-7----9----10----12----7----10----9----5----| x2
D|-x-x8-x-x8-x--x8-x--x8-x-x8-x--x8-x-x8-x-x8-|
A|-5----7----8-----10----5----8-----7----3----|
D|--------------------------------------------|

(Guitar 2 - right)
e|------------------------------------------------|
B|------------------------------------------------|
G|-10----12----14----15----10----14----12----9----| x2
D|-x--x8-x--x8-x--x8-x--x8-x--x8-x--x8-x--x8-x-x8-|
A|-8-----10----12----13----8-----12----10----7----|
D|------------------------------------------------|

(1:33-2:00)
(Guitar 1 - left)                                                        PH
e|--------------------------------------------------------------------------|
B|--------------------------------------------------------------------------|
G|-----------------------------------------------------------------------8b-|
D|-00----0-0-0-0-0-00----10p0-5p0-8p0-7p0-00----0-0-0-0-0-00----10p0-5p0----|
A|-00----0-0-0-0-0-00---------------------00----0-0-0-0-0-00----------------|
D|-00----0-0-0-0-0-00---------------------00----0-0-0-0-0-00----------------|
   **    * * * * * **                     **    * * * * * **

e|-------------------------------------------------------------------------------|
B|-------------------------------------------------------------------------------|
G|-------------------------------------------------------------------------------|
D|-00~---0-0-0-0-0-00~---10p0-5p0-8p0-7p0-00----0-0-0-0-0-00----10p0-5p0-8p0-7p0-|
A|-00~---0-0-0-0-0-00~--------------------00----0-0-0-0-0-00---------------------|
D|-00~---0-0-0-0-0-00~--------------------00----0-0-0-0-0-00---------------------|
   **    * * * * * **                     **    * * * * * **

(Guitar 2 - right)                                                     PH
e|-------------------------------------------------------------------------|
B|-------------------------------------------------------------------------|
G|-----------------------9p0-----7p0-5p0-----------------------9p0-----8b--|
D|-00----0-0-0-0-0-00--------7p0---------00----0-0-0-0-0-00--------7p0-----|
A|-00----0-0-0-0-0-00--------------------00----0-0-0-0-0-00----------------|
D|-00----0-0-0-0-0-00--------------------00----0-0-0-0-0-00----------------|
   **    * * * * * **                    **    * * * * * **

e|-----------------------------------------------------------------------------|
B|-----------------------------------------------------------------------------|
G|-----------------------9p0-----7p0-5p0-----------------------9p0-----7p0-5p0-|
D|-00~---0-0-0-0-0-00~-------7p0---------00----0-0-0-0-0-00--------7p0---------|
A|-00~---0-0-0-0-0-00~-------------------00----0-0-0-0-0-00--------------------|
D|-00~---0-0-0-0-0-00~-------------------00----0-0-0-0-0-00--------------------|
   **    * * * * * **                    **    * * * * * **

e|---------------------------------------------------|
B|---------------------------------------------------|
G|---------------------------------------------------|
D|-0~------------------------------------------------|
A|-0~------------------------------------------------|
D|-0~------------------------------------------------|

(2:00-2:24)
e|--------||---------------------------------------------------------------|
B|--------||---------------------------------------------------------------|
G|--------||---------------------------------------------------------------| x2
D|-1414-14||-0~----1010-99-1010----1010-99-1010----1010-99-1010----1414-14-|
A|-x-x--x-||-0~----x-x--xx-x-x-----x-x--xx-x-x-----x-x--xx-x-x-----x-x--x--|
D|-1212-12||-0~----8-8--77-8-8-----8-8--77-8-8-----8-8--77-8-8-----1212-12-|

e|---------------------------------------------------|
B|---------------------------------------------------|
G|---------------------------------------------------|
D|-0~------------------------------------------------|
A|-0~------------------------------------------------|
D|-0~------------------------------------------------|

(2:24-2:34)
e|---------------------------------------------------|
B|---------------------------------------------------|
G|---------------------------------------------------|
D|-0-0-0----0-0-0----0-0-0----------5---5-7-8--------|
A|-0-0-0----0-0-0----0-0-0----5-7-8---8--------------|
D|-1-0-0----1-0-0----1-0-0---------------------------|
     * *      * *      * *

e|---------------------------------------------------|
B|---------------------------------------------------|
G|---------------------------------------------------|
D|-0-0-0----0-0-0----0-0-0---------------------------|
A|-0-0-0----0-0-0----0-0-0---------------------------|
D|-1-0-0----1-0-0----1-0-0---------------------------|
     * *      * *      * *

(2:34-2:54)
e|---------------------------------------------------|
B|---------------------------------------------------|
G|---------------------------------------------------|
D|-0-0-0----0-0-0----0-0-0----------5---5-7-8--------|
A|-0-0-0----0-0-0----0-0-0----5-7-8---8--------------|
D|-0-0-0----0-0-0----0-0-0---------------------------|
   * * *    * * *    * * * 

e|----------------------------------10h13p10---------|
B|--------------------------------11--------11-------|
G|------------------------------10------------10-----|
D|-0-0-0----0-0-0----0-0-0----12----------------12---|
A|-0-0-0----0-0-0----0-0-0------------------------13-|
D|-0-0-0----0-0-0----0-0-0---------------------------|
   * * *    * * *    * * * 

e|----------------------------------11h14p11---------|
B|--------------------------------12--------12-------|
G|------------------------------11------------11-----|
D|-0-0-0----0-0-0----0-0-0----13----------------13---|
A|-0-0-0----0-0-0----0-0-0------------------------14-|
D|-0-0-0----0-0-0----0-0-0---------------------------|
   * * *    * * *    * * * 

e|---------------------------------------------------|
B|---------------------------------------------------|
G|---------------------------------------------------|
D|-0-0-0----0-0-0----0-0-0----------5---5-7-8--------|
A|-0-0-0----0-0-0----0-0-0----5-7-8---8--------------|
D|-0-0-0----0-0-0----0-0-0---------------------------|
   * * *    * * *    * * *

(2:54-3:04)
e|---------------------------------------------------|
B|---------------------------------{5}(dive-bomb)----|
G|---------------------------------------------------|
D|-0~----0~----8750~----0~--000000-------------------|
A|-0~----0~----8750~----0~--000000-------------------|
D|-0~----0~----8750~----0~--000000-------------------|
               ***          ******

(3:04-3:25)
e|-----------------------------------------------------|
B|---------------------------------------------------5-|
G|-----------------------------------------------------| x4
D|-0-------------8-7---------0-------------8-7---5h7---|
A|-0-------------------------0-------------------------|
D|-0-0-000-000-0-----0-000-0-0-0-000-000-0-----0-------|
     * *** *** *     * *** *   * *** *** *     *

(3:25-3:33)
e|----------------------------|
B|----------------------------|
G|----------------------------| x3
D|-0-0-000-000--0-0-000-000-0-|
A|-0-0-000-000--0-0-000-000-0-|
D|-0-0-000-000--0-0-000-000-0-|
     * *** ***  * * *** *** *

e|----------------|
B|----------------|
G|----------------|
D|-0-0-000-000--0-|
A|-0-0-000-000--0-|
D|-0-0-000-000--0-|
     * *** ***  *

(3:33-3:44)
e|----------------------------|
B|----------------------------|
G|----------------------------| x3
D|-0-0-000-000--0-0-000-000-0-|
A|-0-0-000-000--0-0-000-000-0-|
D|-0-0-000-000--0-0-000-000-0-|
     * *** ***  * * *** *** *

e|----------------------------|
B|----------------------------|
G|----------------------------|
D|-0-0-000-000----------------|
A|-0-0-000-000----------------|
D|-0-0-000-000--0-(dive-bomb)-|
     * *** ***
  
(3:44-3:55)                         End 4th time with:
e|----------------------------|    |------------------|
B|----------------------------|    |------------------|
G|----------------------------|    |------------------|
D|-0-0-000-000--0-0-000-000-0-| x4 |-0----------------|
A|-0-0-000-000--0-0-000-000-0-|    |-0----------------|
D|-0-0-000-000--0-0-000-000-0-|    |-0----------------|
     * *** ***  * * *** *** *


***********************************

| *   Palm Mute
| ~   Hold Chord/notes
| h   Hammer-On
| p   Pull-Off
| b   Bend
| x   Mute Note
| {}  Natural Harmonic
| PH  Pinch Harmonic

***********************************

            
            
Suggest correction
Creating personal tab
Creating personal tab
You can edit any tab online and save it as your Personal.

You can edit, replace or remove any tab part or add personal notes – all changes will be seen only by you.

Personal tabs can be accessed anytime from any device, even offline.
Learn more »
comments
print report bad tab
1 comment total.
0 reply
poloweak 10 Dec 13, 2016 06:27 AM

is this accurate? just asking \m/

guest
You may want to rate the tab now too:
select rating
Wanna post a correction for this tab? Suggest correction