Oops, an error
Loading. Please wait.
We have an official Not The American Average tab made by UG professional guitarists. Check out the tab »
×
249,092 views 105 this week
32 commentsread comments
1 2 3 4 5
x 60
add to favorites
×
Save as Personal and add changes to this tab that will be seen only by you. Learn more ›
×
You can save this tab as Personal to edit and correct it or add notes. All changes will be seen only by you. Learn more »
launch autoscroll
font size
0
reset
how to read this tab
guitar tuner
edit
Autoscroll
slow
fast
+/-
esc
set tempo
stop
(0:00-0:11)
[Drum Intro]

(0:11-0:20)
e|--------------------|
B|--------------------|
G|--------------------|
D|-5p0-0------5p0-000-|
A|-5p0-0------5p0-000-|
D|-5p0-0------5p0-000-| x2

(0:21-0:41)
e|----------------------------------------------------------------------------------------|
B|----------------------------------------------------------------------------------------|
G|------------8p0------------------8p0--------------------8p0-------------------8p0-------|
D|-5p0-0---------8p0----5p0-000-------8p0----5p0-0---{5}-----8p0-----5p0-000-------8p0----|
A|-5p0-0------------8p0-5p0-000----------8p0-5p0-0--------------8p0--5p0-000----------8p0-|
D|-5p0-0----------------5p0-000--------------5p0-0-------------------5p0-000--------------|

e|---------------------------------------------------------------------------|
B|---------------------------------------------------------------------------|
G|------------8p0------------------8p0--------------------8p0----------------|
D|-5p0-0---------8p0----5p0-000-------8p0----5p0-0---{5}-----8p0-----5p0-000-|
A|-5p0-0------------8p0-5p0-000----------8p0-5p0-0--------------8p0--5p0-000-|
D|-5p0-0----------------5p0-000--------------5p0-0-------------------5p0-000-|

(0:43-1:05)
e|----------------------------------------------------------------------------------------|
B|----------------------------------------------------------------------------------------|
G|------------8p0--------------------8p0------------------8p0-------------------8p0-------|
D|-5p0-0---------8p0----5p0-000--{5}----8p0----5p0-0---------8p0-----5p0-000-------8p0----|
A|-5p0-0------------8p0-5p0-000------------8p0-5p0-0------------8p0--5p0-000----------8p0-|
D|-5p0-0----------------5p0-000----------------5p0-0-----------------5p0-000--------------| x2

(1:05-1:07)
e|-------------------xxxx-|
B|-------------------xxxx-|
G|-------------------xxxx-|
D|-000-0--0-000-0--0-xxxx-|
A|-000-0--0-000-0--0-xxxx-|
D|-000-0--0-000-0--0-xxxx-|
   *** *  * *** *  *

(1:07-1:28)
e|---------------------------------------------------|
B|---------------------------------------------------|
G|-7-777777-9-999999-10-101010101010-12-121212121212-|
D|-x-xxxxxx-x-xxxxxx--x--x-x-x-x-x-x--x--x-x-x-x-x-x-|
A|-5-555555-7-777777--8--8-8-8-8-8-8-10-101010101010-|
D|---------------------------------------------------| x4

(1:28-1:51)
e|----------------------------------------------------------------------------------------------|
B|----------------------------------------------------------------------------------------------|
G|---------------------------------------------------------------------------------------7h9h10-|
D|------------------8--------7------------0-----------------8----------------------7h9h10-------|
A|---8-7-8-10-8-7h8-8--8-7h8-7--8-10-8-7--0--8-7-8-10-8-7h8-8--8-7h8---------7h9h10-------------|
D|-00-0-0-0--0-0----8-0-0----7-0-0--------0-0-0-0-0--0-0----8-0-0----0-7h9h10-------------------|
   ** * * *  * *      * *      * *          * * * *  * *      * *    *

e|------------------------------------------------------------------------------------------|
B|------------------------------------------------------------------------------------------|
G|------------------------------------------------------------------------------------------|
D|------------------------8-----------7---------------0-----------------------8-------------|
A|---12-10-12-13-12-10h12-8--12-10h12-7--12-13-12-10--0--12-10-12-13-12-10h12-8--12-10h12---|
D|-00--0--0--0--0--0------8-0--0------7-0--0----------0-0--0--0--0--0--0------8-0--0------0-|
   **  *  *  *  *  *        *  *        *  *            *  *  *  *  *  *        *  *      *

e|-------------------------------------------------------------------------------|
B|-------------------------------------------------------------------------------|
G|-------------------7h9h10------------------------------------------------------|
D|-------------7h9h10-----------------------------------------------------0---0~-|
A|-------7h9h10-------------5h8p5h8p5h8p5h8(trill)-4h7p4h7p4h7p4h7(trill)-0---0~-|
D|-7h9h10-----------------------------------------------------------------0---0~-|
                                                                          *
(1:51-2:09)
[Break]

You stupid fucking WHORE!

(2:09-2:41)
e|-----------------------------------------------------------------|
B|-----------------------------------------------------------------|
G|-----------------------------------------------------------------|
D|-00----0-000-000-0-0000----0-0-00000-000-000-0-0000----0-0-00000-|
A|-00----0-000-000-0-0000----0-0-00000-000-000-0-0000----0-0-00000-|
D|-00----0-000-000-0-0000----0-0-00000-000-000-0-0000----0-0-00000-|
   **    * *** **  * ****      * ***** *** **  * ****      * *****

e|---------------------------------------|
B|---------------------------------------|
G|---------------------------------------|
D|000-0000000000--------0-000-0000000000-|
A|000-0000000000--------0-000-0000000000-|
D|000-0000000000--------0-000-0000000000-|
  *** **********        * *** **********

e|-----------------------------------------------------------------|
B|-----------------------------------------------------------------|
G|-----------------------------------------------------------------|
D|-00----0-000-000-0-0000----0-0-00000-000-000-0-0000----0-0-00000-|
A|-00----0-000-000-0-0000----0-0-00000-000-000-0-0000----0-0-00000-|
D|-00----0-000-000-0-0000----0-0-00000-000-000-0-0000----0-0-00000-|
   **    * *** **  * ****      * ***** *** **  * ****      * *****

e|---------------------------------------------------|
B|---------------------------------------------------|
G|---------------------------------------------------|
D|-000-0000000000--------0-000-0000000000----00---0~-|
A|-000-0000000000--------0-000-0000000000----00---0~-|
D|-000-0000000000--------0-000-0000000000----00---0~-|
   *** **********        * *** **********    **

(2:41-3:50)
[Break]

(3:50-3:56)
e|----------------------------------|
B|----------------------------------|
G|----------------------------------|
D|-00--00----000--00--00--00----000-|
A|-00--00----000--00--00--00----000-|
D|-11--11----111--11--11--11----111-|
   **  **    ***  **  **  **    ***

DANNY!

(3:58-4:21)
e|----------------------------------------------------------------------------|
B|----------------------------------------------------------------------------|
G|----------------------------------------------------------------------------|
D|-00~------000~--00~--00~------000~--00~--00--00---000--00--00--00---000--00-|
A|-00~------000~--00~--00~------000~--00~--00--00---000--00--00--00---000--00-|
D|-00~------000~--00~--00~------000~--00~--00--00---000--00--00--00---000--00-|
   **       ***   **   **       ***   **   **  **   ***  **  **  **   ***  **

e|--------------------------------------------|
B|--------------------------------------------|
G|--------------------------------------------|
D|-00~------000~--00~--00~------000~--00~--00-|
A|-00~------000~--00~--00~------000~--00~--00-|
D|-11~------111~--11~--11~------111~--11~--00-|
   **       ***   **   **       ***   **   **

(4:26-4:36)
e|----------------------------------------------------------------|
B|----------------------------------------------------------------|
G|----------------------------------------------------------------|
D|-00~------------000~----00~----00~------------000~----00~----00-|
A|-00~------------000~----00~----00~------------000~----00~----00-|
D|-11~------------111~----11~----11~------------111~----11~----00-|
   **             ***     **     **             ***     **     **


***********************************

* = Palm Mute
~ = Let Note Ring Out
h = Hammer-On
p = Pull-Off
x = Mute Note
{} = Natural Harmonic

***********************************

            
            
Suggest correction
Creating personal tab
Creating personal tab
You can edit any tab online and save it as your Personal.

You can edit, replace or remove any tab part or add personal notes – all changes will be seen only by you.

Personal tabs can be accessed anytime from any device, even offline.
Learn more »
comments
print report bad tab
32 comments total. Showing first comments. show 2 bad comments
+11 reply
Johnsta15 145 Jan 12, 2010 04:08 PM

from 0:21-1:05 its

E|------------------------------------------------|
B|------------------------------------------------|
G|---------8p0------------------------------------|
D|------------7p0---------------------------------|
A|--5p0-0--------8p0------------------------------|
D|--5p0-0-----------------------------------------|

but the rest is great nice work :D

guest
You may want to rate the tab now too:
select rating
Wanna post a correction for this tab? Suggest correction