Oops, an error
Loading. Please wait.

Run Free tab

version 1
version 1

Whole song

Interactive

21,027 views 12 this week
2 commentsread comments
1 2 3 4 5
x 18
add to favorites
×
Save as Personal and add changes to this tab that will be seen only by you. Learn more ›
×
You can save this tab as Personal to edit and correct it or add notes. All changes will be seen only by you. Learn more »
launch autoscroll
font size
0
reset
how to read this tab
guitar tuner
edit
Autoscroll
slow
fast
+/-
esc
set tempo
stop
[Intro]
C#|---------------------|
G#|---------------------|
E |---------<5>---------|
B |---------------------|
F#|---------------------|
B |---------------------|

C#|-------------------------------------------------------------------|
G#|-------------------------------------------------------------------|
E |-------------------------------------------------------------------|
B |-------------------------------------------------------------------|(x2)
F#|-------------------------------------------------------------------|
B |7-0-8-0--0-1-0---0---0---0---0---7-0-8-0--0-1-0---0---0-8-8-10-10--|

C#|--------------------------------------------------------------------------------|
G#|--------------------------------------------------------------------------------|
E |--------------------------------------------------------------------------------|
B |--------------------------------------------------------------------------------|(x2)
F#|-------------------------------000-000-----------------------------000-000-000--|
B |7-0-8-0--0-1-0---0---0---0---0-000-000--7-0-8-0--0-1-0---0---0-0-0-000-000-000--|
                                  ... ...                             ... ... ...

C#|-------------------------------------------------------------------------------------------------|
G#|-------------------------------------------------------------------------------------------------|
E |10-10-10-10-10-10-10-10-10-10-10-10-10-10-10-10-14-14-14-14-14-14-14-14-14-14-14-14-14-14-14-14--|
B |x--x--x--x--x--x--x--x--x--x--x--x--x--x--x--x--x--x--x--x--x--x--x--x--x--x--x--x--x--x--x--x---|
F#|8--8--8--8--8--8--8--8--8--8--8--8--8--8--8--8--12-12-12-12-12-12-12-12-12-12-12-12-12-12-12-12--|
B |-------------------------------------------------------------------------------------------------|

[Verse 1]
C#|-------------------------------------------------------------------------------------------------|
G#|-------------------------------------------------------------------------------------------------|
E |-------------------------------------------------------------------------------------------------|
B |-------------------------------------------------------------------------------------------------|
F#|-------------------------------------------------------------------------------------------------|
B |1-0---10-0-12-0---10-0-12-0---1-0---10-0-12-0---12-13-15-13-12-13---1-0---10-0-12-0---10-0-12-0--|

C#|--------------------------------------------------------|
G#|--------------------------------------------------------|
E |--------------------------------------------------------|
B |--------------------------------------------------------|(x2)
F#|--------------------------------------------------------|
B |1-0---5-0-7-0---5-0-7-0---1-0---5-0-7-0---7-8-10-8-7-8--|

[Chorus]
C#|----------------------------------------------------------------------------------------------|
G#|----------------------------------------------------------------------------------------------|
E |----------------------------------------------------------------------------------------------|
B |12-12-12-12-12-12-12-12-12-12-12-12-12-12-12-12-12-12-12-12-12-12-12-12-12-12-12-10-10-10-10--|
F#|12-12-12-12-12-12-12-12-12-12-12-12-12-12-12-12-12-12-12-12-12-12-12-12-12-12-12-10-10-10-10--|
B |12-12-12-12-12-12-12-12-12-12-12-12-12-12-12-12-12-12-12-12-12-12-12-12-12-12-12-10-10-10-10--|

C#|-----------------------------------------------------------------|
G#|-----------------------------------------------------------------|
E |-----------------------------------------------------------------|
B |8-8-8-8-8-8-8-8-8-8-8-8-8-8-8-8-7-7-7-7-7-7-7-7-7-7-7-7-7-7-7-7--|(x2)
F#|8-8-8-8-8-8-8-8-8-8-8-8-8-8-8-8-7-7-7-7-7-7-7-7-7-7-7-7-7-7-7-7--|
B |8-8-8-8-8-8-8-8-8-8-8-8-8-8-8-8-7-7-7-7-7-7-7-7-7-7-7-7-7-7-7-7--|

[Intro]
C#|-------------------------------------------------------------------|
G#|-------------------------------------------------------------------|
E |-------------------------------------------------------------------|
B |-------------------------------------------------------------------|(x2)
F#|-------------------------------------------------------------------|
B |7-0-8-0--0-1-0---0---0---0---0---7-0-8-0--0-1-0---0---0-8-8-10-10--|

[Verse 2]
C#|-------------------------------------------------------------------|
G#|-------------------------------------------------------------------|
E |-------------------------------------------------------------------|
B |-------------------------------------------------------------------|(x2)
F#|-------------------------------------------------------------------|
B |1-0---10-0-12-0---10-0-12-0---1-0---10-0-12-0---12-13-15-13-12-13--|

C#|--------------------------------------------------------|
G#|--------------------------------------------------------|
E |--------------------------------------------------------|
B |--------------------------------------------------------|(x2)
F#|--------------------------------------------------------|
B |1-0---5-0-7-0---5-0-7-0---1-0---5-0-7-0---7-8-10-8-7-8--|

[Chorus]
C#|----------------------------------------------------------------------------------------------|
G#|----------------------------------------------------------------------------------------------|
E |----------------------------------------------------------------------------------------------|
B |12-12-12-12-12-12-12-12-12-12-12-12-12-12-12-12-12-12-12-12-12-12-12-12-12-12-12-10-10-10-10--|
F#|12-12-12-12-12-12-12-12-12-12-12-12-12-12-12-12-12-12-12-12-12-12-12-12-12-12-12-10-10-10-10--|
B |12-12-12-12-12-12-12-12-12-12-12-12-12-12-12-12-12-12-12-12-12-12-12-12-12-12-12-10-10-10-10--|

C#|-----------------------------------------------------------------|
G#|-----------------------------------------------------------------|
E |-----------------------------------------------------------------|
B |8-8-8-8-8-8-8-8-8-8-8-8-8-8-8-8-7-7-7-7-7-7-7-7-7-7-7-7-7-7-7-7--|(x2)
F#|8-8-8-8-8-8-8-8-8-8-8-8-8-8-8-8-7-7-7-7-7-7-7-7-7-7-7-7-7-7-7-7--|
B |8-8-8-8-8-8-8-8-8-8-8-8-8-8-8-8-7-7-7-7-7-7-7-7-7-7-7-7-7-7-7-7--|

[Breakdown]
C#|------------------------------------------------------------------|
G#|------------------------------------------------------------------|
E |------------------------------------------------------------------|
B |------------------------------------------------------------------|(x2)
F#|0-0--0--0------0--0-0---0--0-0----0-0--0--0------0--0-0---0--0-0--|
B |1-1--1--1------1--1-1---1--1-0----1-1--1--1------1--1-1---1--1-0--|

[Break]

[Chorus]
C#|----------------------------------------------------------------------------------------------|
G#|----------------------------------------------------------------------------------------------|
E |----------------------------------------------------------------------------------------------|
B |12-12-12-12-12-12-12-12-12-12-12-12-12-12-12-12-12-12-12-12-12-12-12-12-12-12-12-10-10-10-10--|
F#|12-12-12-12-12-12-12-12-12-12-12-12-12-12-12-12-12-12-12-12-12-12-12-12-12-12-12-10-10-10-10--|
B |12-12-12-12-12-12-12-12-12-12-12-12-12-12-12-12-12-12-12-12-12-12-12-12-12-12-12-10-10-10-10--|

C#|-----------------------------------------------------------------|
G#|-----------------------------------------------------------------|
E |-----------------------------------------------------------------|
B |8-8-8-8-8-8-8-8-8-8-8-8-8-8-8-8-7-7-7-7-7-7-7-7-7-7-7-7-7-7-7-7--|(x4)
F#|8-8-8-8-8-8-8-8-8-8-8-8-8-8-8-8-7-7-7-7-7-7-7-7-7-7-7-7-7-7-7-7--|
B |8-8-8-8-8-8-8-8-8-8-8-8-8-8-8-8-7-7-7-7-7-7-7-7-7-7-7-7-7-7-7-7--|

[Played Over Chorus After Second Time]
C#|10-10-10-10-10-10-10-10-10-10-10-10-10-10-10-10-13-13-13-13-13-13-13-13-12-12-12-12-12-12-12-12-|
G#|------------------------------------------------------------------------------------------------|
E |------------------------------------------------------------------------------------------------|
B |------------------------------------------------------------------------------------------------|
F#|------------------------------------------------------------------------------------------------|
B |------------------------------------------------------------------------------------------------|

C#|10-10-10-10-10-10-10-10-10-10-10-10-10-10-10-10-13-13-13-13-13-13-13-13-17-17-17-17-15-15-15-15-|
G#|------------------------------------------------------------------------------------------------|
E |------------------------------------------------------------------------------------------------|
B |------------------------------------------------------------------------------------------------|(x2)
F#|------------------------------------------------------------------------------------------------|
B |------------------------------------------------------------------------------------------------|

            
            
Suggest correction
Creating personal tab
Creating personal tab
You can edit any tab online and save it as your Personal.

You can edit, replace or remove any tab part or add personal notes – all changes will be seen only by you.

Personal tabs can be accessed anytime from any device, even offline.
Learn more »
comments
print report bad tab
2 comments total.
0 reply
GBpackfan1205 10 Aug 30, 2013 05:46 PM

Awesome tab love this song!!!!

0 reply
bray.munroe 10 Nov 15, 2013 10:39 AM

Good job, you have a great hear. except for the timing in the chorus isn't quite right but that's okay cause it's pretty tricky.
Oh and the little section right before the 1st verse actually goes like this:

Guitar I
C#|---------------------------------------------------------------------------------------------------|
G#|---------------------------------------------------------------------------------------------------|
E|---------------------------------------------------------------------------------------------------|
B|---------------------------------------------------------------------------------------------------|
F#|---------------------------------------------------------------------------------------------------|
B|--3--3--3--3--3--3--3--3--3--3--3--3--3--3--3--3--2--2--2--2--2--2--2--2--0--0--0--0--0--0--0--0---|

Guitar II
C#|---------------------------------------------------------------------------------------------------|
G#|---------------------------------------------------------------------------------------------------|
E|--10-10-10-10-10-10-10-10-10-10-10-10-10-10-10-10-10-10-10-10-10-10-10-10-10-10-10-10-10-10-10-10--|
B|--x--x--x--x--x--x--x--x--x--x--x--x--x--x--x--x--x--x--x--x--x--x--x--x--x--x--x--x--x--x--x--x---|
F#|--8--8--8--8--8--8--8--8--8--8--8--8--8--8--8--8--8--8--8--8--8--8--8--8--8--8--8--8--8--8--8--8---|
B|---------------------------------------------------------------------------------------------------|

guest
You may want to rate the tab now too:
select rating
Wanna post a correction for this tab? Suggest correction