Oops, an error
Loading. Please wait.
We have an official Someone Somewhere tab made by UG professional guitarists. Check out the tab »
×
53,318 views 81 this week
4 commentsread comments
1 2 3 4 5
x 20
add to favorites
×
Save as Personal and add changes to this tab that will be seen only by you. Learn more ›
×
You can save this tab as Personal to edit and correct it or add notes. All changes will be seen only by you. Learn more »
launch autoscroll
font size
0
reset
how to read this tab
guitar tuner
edit
Autoscroll
slow
fast
+/-
esc
set tempo
stop
[Riff 1, Guitars 1 & 2] - [0:00 - 0:24] ---------------------------| - (x2)
D|-------------------------------------------------------------------|
A|-11----11----11----11----11------13----13----13----13----13--------|
F|---14----14----14----14----14--14--14----14----14----14----14--14--|
C|-----15----15----15----15----15------15----15----15----15----15----|
G|-------------------------------------------------------------------|
C|-------------------------------------------------------------------|
 |Let Ring
D|------------------------------------------------------------------|
A|------------------------------------------------------------------|
F|------------------------------------------------------------------|
C|-5-------------------------------8--------------------------------|
G|-5-------------------------------8--------------------------------|
C|-5-------------------------------8--------------------------------|


D|-13----13----13--12----12----12-----------------------------------|
A|---13----13----13--13----13----13-13---13----13----13----13-------|
F|-----14----14--------14----14------14----14----14----14----14--14-|
C|-------------------------------------15----15----15----15----15---|
G|------------------------------------------------------------------|
C|------------------------------------------------------------------|
 |Let Ring
D|------------------------------------------------------------------|
A|------------------------------------------------------------------|
F|------------------------------------------------------------------|
C|-3-------------------------------0--------------------------------|
G|-3-------------------------------0--------------------------------|
C|-3-------------------------------0--------------------------------|

----------------------------------------------------------------------------

[Riff 2, Guitars 1 & 2] - [0:24 - 0:36]
D|------------------------------------------------------------------|
A|-11----11----11----11----11------13----13----13----13----13-------|
F|---14----14----14----14----14--14--14----14----14----14----14--14-|
C|-----15----15----15----15----15------15----15----15----15----15---|
G|------------------------------------------------------------------|
C|------------------------------------------------------------------|
 |Let Ring
D|------------------------------------------------------------------|
A|------------------------------------------------------------------|
F|------------------------------------------------------------------|
C|------------------------------------------------------------------|
G|-5-----5555555-----5555555-5---558-----8888888-----8888888---8888-|
C|-5-----5555555-----5555555-5---558-----8888888-----8888888---8888-|
PM ................................................................


D|-13----13----13--12----12----12-----------------------------------|
A|---13----13----13--13----13----1313----13----13----13----13-------|
F|-----14----14--------14----14------14----14----14----14----14--14-|
C|-------------------------------------15----15----15----15----15---|
G|------------------------------------------------------------------|
C|------------------------------------------------------------------|
 |Let Ring
D|------------------------------------------------------------------|
A|------------------------------------------------------------------|
F|------------------------------------------------------------------|
C|------------------------------------------------------------------|
G|-3-----3333333-----3333333-3---330-----0000000-----0000000---0000-|
C|-3-----3333333-----3333333-3---330-----0000000-----0000000---0000-|
PM ................................................................

----------------------------------------------------------------------------

[Riff 3, Guitars 1 & 2] - [0:36-1:00] ---------------------------| - (x2)
D|-------------------------------------------------------------------|
A|-------------------------------------------------------------------|
F|-------------------------------------------------------------------|
C|-------------------------------------------------------------------|
G|-------5---7---8-------5---7---8-------5---7---8-------7---10p8p7--|
C|-5-5-5---5---5---555-5---5---5---8-8-8---8---8---888-8---8---------|
PM .....   .   .   .....   .   .   .....   .   .   .....   .
 |
D|------------------------------------------------------------------|
A|------------------------------------------------------------------|
F|------------------------------------------------------------------|
C|-----------5---7-----------5---7-----------5---7-------5---8-7-5--|
G|-------8---------------8---------------8--------------------------|
C|-5-5-5---5---5---555-5---5---5---8-8-8---8---8---888-8---8--------|
PM .....   .   .   .....   .   .   .....   .   .   .....   .


D|------------------------------------------------------------------|
A|------------------------------------------------------------------|
F|------------------------------------------------------------------|
C|-----------3---7-----------3---------------------8-7-5-7-5--------|
G|-------7---------------7-------7-------5---7---8-----------8-7-5--|
C|-3-3-3---3---3---333-3---3---3---0-0-0---0---0--------------------|
PM .....   .   .   .....   .   .   .....   .   .
 |
D|------------------------------------------------------------------|
A|------------------------------------------------------------------|
F|-------------------------------------------------7-5---5----------|
C|-------3---5---7-------5---7---5-----------5---7-----8---8-7-5----|
G|---------------------------------------8-----------------------8--|
C|-3-3-3---3---3---333-3---3---3---0-0-0---0---0--------------------|
PM .....   .   .   .....   .   .   .....   .   .

----------------------------------------------------------------------------

[Riff 4] - [1:00 - 1:02]
D|-----------------|
A|-----------------|
F|-----------------|
C|-5---------------|
G|-5---------------|
C|-5---------------|

----------------------------------------------------------------------------

[Riff 5, Guitars 1 & 2] - [1:02 - 1:26]
D|----------------------------------------------------------|
A|----------------------------------------------------------|
F|-3------5------7------5------3------5------7------5-------|
C|-3------5------7------5------3------5------7------5-------|
G|-1(16x)-3(16x)-5(16x)-3(16x)-1(16x)-3(16x)-5(16x)-3(16x)--|
C|----------------------------------------------------------|
 |
D|----------------------------------------------------------|
A|----------------------------------------------------------|
F|-7------9------10-----9------7------9------10-----12------|
C|-x------x------x------x------x------x------x------x-------|
G|-5(16x)-7(16x)-8(16x)-7(16x)-5(16x)-7(16x)-8(16x)-10(16x)-|
C|----------------------------------------------------------|

The higher notes heard during the chorus are played on a synthesizer.

----------------------------------------------------------------------------

[Riff 6] - [1:26 - 1:27]
D|-----------------|
A|-----------------|
F|-----------------|
C|-8---------------|
G|-8---------------|
C|-8---------------|

----------------------------------------------------------------------------

[Riff 3, Guitars 1 & 2] - [1:27 - 1:39]

----------------------------------------------------------------------------

[Riff 7a] - [1:39 - 1:51]
D|------------------------------------------------------------------|
A|------------------------------------------------------------------|
F|------------------------------------------------------------------|
C|------------------------------------------------------------------|
G|-5-----5555555-----5555555-5---558-----8888888-----8888888---8888-|
C|-5-----5555555-----5555555-5---558-----8888888-----8888888---8888-|
PM ................................................................

D|------------------------------------------------------------------|
A|------------------------------------------------------------------|
F|------------------------------------------------------------------|
C|------------------------------------------------------------------|
G|-3-----3333333-----3333333-3---330-----0000000-----0000000---0000-|
C|-3-----3333333-----3333333-3---330-----0000000-----0000000---0000-|
PM ................................................................

[Riff 7b] - [1:39 - 1:51]
D|-------------------------------------------------------------------|
A|-------------------------------------------------------------------|
F|-10101010101010101010101010\9-9-9-9/101010101010101010101010\9-9-9-|
C|-x-x-x-x-x-x-x-x-x-x-x-x-x--x-x-x-x-x-x-x-x-x-x-x-x-x-x-x-x--x-x-x-|
G|-8-8-8-8-8-8-8-8-8-8-8-8-8-\7-7-7-7/8-8-8-8-8-8-8-8-8-8-8-8-\7-7-7-|
C|-------------------------------------------------------------------|

D|-------------------------------------------------------------------|
A|-------------------------------------------------------------------|
F|-9/101010101010101010101010\9-9-9-9/101010101010101010101012121212-|
C|-x-x-x-x-x-x-x-x-x-x-x-x-x--x-x-x-x-x-x-x-x-x-x-x-x-x-x-x-x-x-x-x--|
G|-7/8-8-8-8-8-8-8-8-8-8-8-8-\7-7-7-7/8-8-8-8-8-8-8-8-8-8-8-10101010-|
C|-------------------------------------------------------------------|

Since the lead part here is near impossible to hear, I think there's a synth in here too.
I wrote what was played live.

----------------------------------------------------------------------------

[Riff 5, Guitars 1 & 2] - [1:51 - 2:16]

----------------------------------------------------------------------------

[Riff 8] - [2:16 - 2:39] --------------------------------------------| - (x2)
D|---------------------------------------------------------------------|
A|---------------------------------------------------------------------|
F|---------------------------------------------------------------------|
C|---------------------------------------------------------------------|
G|-7h8p7-3/5---0-0-0---0-0-0---000-0-7h8p7-3/5---0-0----0-0-0---0-0-0--|
C|-------------0-0-0---0-0-0---000-0-------------0-0----0-0-0---0-0-0--|
PM             .....................             ....................

D|-------------------------------------------------------------------|
A|-------------------------------------------------------------------|
F|-------------------------------------------------------------------|
C|-----------------------------------5-----5-----5---8-----8-----8---|
G|-7h8p7-3/5---0-0-0---0-0-0---000-0-5-----5-5-5-5---8-----8-8-8-8---|
C|-------------0-0-0---0-0-0---000-0-5-----5-5-5-5---8-----8-8-8-8---|
PM             .....................         ...             ...

[Riff 9] - [2:16 - 2:27]
D|----------------------------------------------------------|
A|-10----10----10----8h10p8----8-10-8-----------------------|
F|-12b---12b---12b----------10--------10---------------10-9-|
C|--------------------------------------/12------10-12------|
G|----------------------------------------------------------|
C|----------------------------------------------------------|

D|------------------------------------------------------------|
A|---------------------10--13-10------------------------------|
F|---------------10-12-12b----12pbr-12------------------10-12-|
C|---------10-12----------------------------------10-12-------|
G|------------------------------------------------------------|
C|------------------------------------------------------------|

D|------------------------------------------------------------------|
A|-10----11----13----15---------------------------------------------|
F|-12b---13b---15b---17b--------------------------------------------|
C|------------------------------------------------------------------|
G|------------------------------------------------------------------|
C|------------------------------------------------------------------|

I have a Guitar Pro tab if you wanna hear the solo played.

[Riff 10] - [2:27 - 2:39]
D|--------------------------------------------------------------------|
A|--------------------------------------------------------------------|
F|--------------------------------------------------------------------|
C|-5h7p5-----------------------------5h7p5----------------------------|
G|-------7/8---0-0-0---0-0-0---000-0-------7/8---0-0----0-0-0---0-0-0-|
C|-------------0-0-0---0-0-0---000-0-------------0-0----0-0-0---0-0-0-|
PM             .....................             ....................

D|-------------------------------------------------------------------|
A|-------------------------------------------------------------------|
F|-------------------------------------------------------------------|
C|-5h7p5-----------------------------5-----5-----5---8-----8-----8---|
G|-------7/8---0-0-0---0-0-0---000-0-5-----5-5-5-5---8-----8-8-8-8---|
C|-------------0-0-0---0-0-0---000-0-5-----5-5-5-5---8-----8-8-8-8---|
PM             .....................         ...             ...

----------------------------------------------------------------------------

[Riff 11] - [2:39 - 2:42]
D|---------------------------------|
A|---------------------------------|
F|-7-----7-----7---7-----7-----7---|
C|-7-----7-----7---7-----7-----7---|
G|-5-0-0-5-0-0-5-0-5-0-0-5-0-0-5-0-|
C|---------------------------------|
PM   ...   ...   .   ...   ...   .

----------------------------------------------------------------------------

[Riff 5, Guitars 1 & 2] - [2:42 - 3:30] - (x2)

----------------------------------------------------------------------------

[Riff 12, Guitars 1 & 2] - [3:30 - 3:37]
D|--------------------------------------------------------------------|
A|--------------------------------------------------------------------|
F|--------------------------------------------------------------------|
C|--------------------------------------------------------------------|
G|-7h8p7-3/5---0-0-0---0-0-0---000-0-7h8p7-3/5---0-0----0-0-0---0-0---|
C|-------------0-0-0---0-0-0---000-0-------------0-0----0-0-0---0-0---|
PM             .....................             ..................

D|--------------------------------------------------------------------|
A|--------------------------------------------------------------------|
F|--------------------------------------------------------------------|
C|-5h7p5-----------------------------5h7p5----------------------------|
G|-------7/8---0-0-0---0-0-0---000-0-------7/8---0-0----0-0-0---0-0---|
C|-------------0-0-0---0-0-0---000-0-------------0-0----0-0-0---0-0---|
PM             .....................             ....................

D|--------------------------------------------------------------------|
A|-13b-----------------------13brbrbr13br-----------------------------|
F|--------------------------------------------------------------------|
C|--------------------------------------------------------------------|
G|--------------------------------------------------------------------|
C|--------------------------------------------------------------------|


**********************************************************************

| PM... Palm Mute notes with (...) under them
| h     Hammer On
| p     Pull Off
| /     Slide Up
| \     Slide Down
| x     Dead Note
| b     Bend
| br    Bend and Release
| pb    Pre-bend
| pbr   Pre-bend Release
| r     Release
| (x)   Play Notes x amount of times

**********************************************************************

            
            
Suggest correction
Creating personal tab
Creating personal tab
You can edit any tab online and save it as your Personal.

You can edit, replace or remove any tab part or add personal notes – all changes will be seen only by you.

Personal tabs can be accessed anytime from any device, even offline.
Learn more »
comments
print report bad tab
4 comments total. Showing first comments.
+1 reply
klee1688 2,638 Jul 19, 2011 06:04 AM

another excellent tab from you!!

KEEP THE AUGUST BURNS RED TABS COMING!!!!!!!!!!!!

0 reply
josh-josh-josh 12,279 Jul 22, 2011 11:39 AM

hehe i am! poor millionaire is up, and im working on pangea right noww :)

+1 reply
justjoshuaaa 155 Oct 06, 2012 04:10 AM

Again. Completely perfect.

guest
You may want to rate the tab now too:
select rating
Wanna post a correction for this tab? Suggest correction